Search
Songs
Songbooks
Sign Up
Sign In
EN CZ
CAPO 8
H Bb
CAPO 8
0
CAPO 8

You're Beautiful

James Blunt

G
G/F#
Em7
Cadd9

              G               G/F#        Em7    Cadd9
e|--------------------------------------------------|
B|--------------------------------------------------|
G|--------------------------------------------------|
D|------13-12-13--------13-12-13-15-13-12-13--------|
A|--10-------------10-------------------------10-11-|
E|--------------------------------------------------|
e|------------------------------------------------------------------------|
B|------------------------------------------------------------------------|
G|------------------------------------------------------------------------|
D|------13-12-13--[my life is brilliant]------13-12-13-15-13-12-13--------|
A|--10----------------------------------10-------------------------10-11--|
E|------------------------------------------------------------------------|
G
My life is brilliant
G/F#
My love is pure
Em7
I saw an angel
Cadd9
Of that I'm sure
She
G
smiled at me on the subway
She was
G/F#
with another man
But
Em7
I won't lose no sleep on that
'Cause
Cadd9
I've got a
D/F#
plan
Cadd9
You're beauti
D/F#
ful
Em7
You're beauti
D/F#
ful
Cadd9
You're beauti
D/F#
ful, it's
G
true
I
Cadd9
saw your
D/F#
face in a
G
crow
D/F#
ded  
Em7
place
And I
Cadd9
don't know
D/F#
what to
Em7
do
'Cause I'll
Cadd9
never
D/F#
be with
G
you
              G               G/F#        Em7    Cadd9
e|--------------------------------------------------|
B|--------------------------------------------------|
G|--------------------------------------------------|
D|------13-12-13--------13-12-13-15-13-12-13--------|
A|--10-------------10-------------------------10-11-|
E|--------------------------------------------------|
Yes, she
G
caught my eye
As we
G/F#
walked on by
She could
Em7
see from my face that I was
Cadd9
 Fuckin' high
And
G
I don't think that I'll
G/F#
see her again
But
Em7
we shared a moment that will
Cadd9
last 'til the end
Cadd9
You're beauti
D/F#
ful
Em7
You're beauti
D/F#
ful
Cadd9
You're beauti
D/F#
ful, it's
G
true
I
Cadd9
saw your
D/F#
face in a
G
crow
D/F#
ded  
Em7
place
And I
Cadd9
don't know
D/F#
what to
Em7
do
'Cause I'll
Cadd9
never
D/F#
be with
G
you
Cadd9
 La-la-la-la
Em7
 La-la-la-la
Cadd9
 La-la-la-la,
D/F#
la
Cadd9
D/F#
Cadd9
You're beauti
D/F#
ful
Em7
You're beauti
D/F#
ful
Cadd9
You're beauti
D/F#
ful, it's
G
true
There
Cadd9
must be an
D/F#
angel with a
G
smile on
D/F#
her
Em7
face
When she
Cadd9
thought up that I should
D/F#
be with you
G
D/F#
Em7
But it's
Cadd9
time to
D/F#
face the
Em7
truth
I will
Cadd9
never
D/F#
be with
G
you

Album: Back to Bedlam

Report mistake
Verified by VladaM
Added by Filip Vávra

Report an error in lyrics or chords

chord