Search
Songs
Songbooks
Sign Up
Sign In
EN CZ
CAPO 0
H Bb
CAPO 0
0

Smells Like Teen Spirit

Nirvana

F5
B5
G#5
C#5

e|---------1-------|
B|--------1--------|

Lze vybrnkávat ve slokách a pre-chorusu nebo hrát dokola akordy z hlavního riffu
F5
Load
B5
up on
G#5
guns
C#5
bring your f
F5
riends
It's
B5
fun to
G#5
lose and
C#5
to pre
F5
tend
She's
B5
over-
G#5
bored and
C#5
self-as
F5
sured
Oh
B5
no, I
G#5
know a
C#5
dirty
F5
word
F5
Hello,
B5
hello,
G#5
hello,
C#5
how low
F5
Hello,
B5
hello,
G#5
hello,
C#5
how low
F5
Hello,
B5
hello,
G#5
hello,
C#5
how low
F5
Hello,
B5
hello,
G#5
hello
C#5
With the
F5
lights out
B5
, it's less
G#5
dangerous
C#5
Here we
F5
are now;
B5
enter
G#5
tain us
C#5
I feel
F5
stupid
B5
and con
G#5
tagious
C#5
Here we
F5
are now;
B5
enter
G#5
tain us
C#5
A mu
F5
latto,
B5
an al
G#5
bino,
C#5
a mos
F5
quito
B5
, my li
G#5
bido
C#5
 Yeah!
               Hey!                           Yay!

e|---------------|----------------|---------------|----------------|
B|---------------|----------------|---------------|----------------|
G|-------------3^|-------3-3------|-------------3^|-------3-3------|
D|-3--3-3-4-4----|-3-3-3-3-3--6-6-|-3--3-3-4-4----|-3-3-3-3-3--6-6-|
A|-3--3-3-4-4----|-3-3-3-1-1--6-6-|-3--3-3-4-4----|-3-3-3-1-1--6-6-|
E|-1--1-1-2-2----|-1-1-1------4-4-|-1--1-1-2-2----|-1-1-1------4-4-|
F5
I'm wor
B5
se at
G#5
what
C#5
I do
F5
best
And
B5
for this
G#5
gift I
C#5
feel bl
F5
essed
Our
B5
little
G#5
group has
C#5
always
F5
been
And
B5
always
G#5
will
C#5
until the
F5
end
F5
Hello,
B5
hello,
G#5
hello,
C#5
how low
F5
Hello,
B5
hello,
G#5
hello,
C#5
how low
F5
Hello,
B5
hello,
G#5
hello,
C#5
how low
F5
Hello,
B5
hello,
G#5
hello
C#5
With the
F5
lights out
B5
, it's less
G#5
dangerous
C#5
Here we
F5
are now;
B5
enter
G#5
tain us
C#5
I feel
F5
stupid
B5
and con
G#5
tagious
C#5
Here we
F5
are now;
B5
enter
G#5
tain us
C#5
A mu
F5
latto,
B5
an al
G#5
bino,
C#5
a mos
F5
quito
B5
, my li
G#5
bido
C#5
 Yeah!
               Hey!                           Yay!

e|---------------|----------------|---------------|----------------|
B|---------------|----------------|---------------|----------------|
G|-------------3^|-------3-3------|-------------3^|-------3-3------|
D|-3--3-3-4-4----|-3-3-3-3-3--6-6-|-3--3-3-4-4----|-3-3-3-3-3--6-6-|
A|-3--3-3-4-4----|-3-3-3-1-1--6-6-|-3--3-3-4-4----|-3-3-3-1-1--6-6-|
E|-1--1-1-2-2----|-1-1-1------4-4-|-1--1-1-2-2----|-1-1-1------4-4-|
e|--------------|---------------|-------------|-------------|
B|--------------|---------------|-------------|-------------|
G|-----8h10-----|-8-8^----6--5--|-6--5--------|-------------|
D|-10--------6--|---------------|-------8-6-8-|-8^----6--5--|
A|--------------|---------------|-------------|-------------|
E|--------------|---------------|-------------|-------------|

e|--------------|---------------|-------------|-------------|
B|--------------|---------------|-------------|-------------|
G|-----8h10-----|-8-8^----6--5--|-6--5--------|-------------|
D|-10--------6--|---------------|-------8-6-8-|-8^----6--5--|
A|--------------|---------------|-------------|-------------|
E|--------------|---------------|-------------|-------------|

e|-------------|--------------|-------------|--------------|
B|-------------|--------------|-------------|--------------|
G|-------------|--------------|-------------|--------------|
D|-6--5--6--5--|-6--5--6/5----|-6--5--6--5--|-6--5--6/5----|
A|-------------|-----------8--|-------------|-----------8~~|
E|-------------|--------------|-------------|--------------|
F5
And
B5
I for
G#5
get just
C#5
why I
F5
taste
Oh
B5
yeah,
G#5
I guess it
C#5
makes me
F5
smile
I
B5
found it
G#5
hard; it's
C#5
hard to
F5
find
Oh
B5
well,
G#5
whatever,
C#5
never
F5
mind
F5
Hello,
B5
hello,
G#5
hello,
C#5
how low
F5
Hello,
B5
hello,
G#5
hello,
C#5
how low
F5
Hello,
B5
hello,
G#5
hello,
C#5
how low
F5
Hello,
B5
hello,
G#5
hello
C#5
With the
F5
lights out
B5
, it's less
G#5
dangerous
C#5
Here we
F5
are now;
B5
enter
G#5
tain us
C#5
I feel
F5
stupid
B5
and con
G#5
tagious
C#5
Here we
F5
are now;
B5
enter
G#5
tain us
C#5
A mu
F5
latto,
B5
an al
G#5
bino,
C#5
a mos
F5
quito
B5
, my li
G#5
bido
C#5
 Yeah!
A de
F5
nial,
B5
   a de
G#5
nial,
C#5
   
a de
F5
nial,
B5
   a de
G#5
nial,
C#5
   
a de
F5
nial
B5
    a de
G#5
nial,
C#5
   
a de
F5
nial,
B5
   a de
G#5
nial,
C#5
   
a de
F5
nial

Hymnu 90. let i Generace X není třeba dlouze představovat. Při psaní nebyla zamýšlena jako hit, avšak po vydání druhé přelomové desky Nevermind to byla hlavně právě ona, která vystřelila Nirvanu do hudebních výšin prakticky přes noc. Kurt Cobain začal později píseň nenávidět a často ji odmítal na koncertech hrát a nebo ji vždy víceméně odflákl.

Report mistake
Verified by smartchords
Added by Hlady

Report an error in lyrics or chords

chord