Home
Songs
Songbooks
Sign Up
Sign In
EN CZ
CAPO 0
CAPO 0
0

Okno mé lásky

Olympic

C
Kdo tě líbá, když né
F
já,
C
kdo tě hlídá, když né
F
já,
C
okno v přízemí je
A#
zavřené i
F
dnes,
lásko
C
má.
C
Kdo ti zpívá, když né
F
já,
C
kdo tě mívá, když né
F
já,
C
okno v přízemí je
A#
zavřené i
F
dnes,
lásko
C
má.
Am
A v jeho l
G
esku vidím
F
přicházet
G
Am
sebe ve v
G
ěku patnáct
F
let
Am
a znovu ř
G
íkám spoustu
F
něžných vět.
C
Ty,
F
já,
C
jsme,
F
my,
C
my a
G
náš je
F
svět.
C
Kdo tě budí, když né
F
já,
C
kdo tě nudí, když né
F
já,
C
okno v přízemí je
A#
zavřené i
F
dnes,
lásko
C
má.
E----------------------------------------------------
H-----------5---10h-10-10-8--------------------------
G-----4-5-7---5-------------10h-9-10-9----9/10/9-----
D-5-7----------------------------------10------------
A------------------------------------------------10h-
E----------------------------------------------------
Am
A v jeho l
G
esku vidím
F
přicházet
G
Am
sebe ve v
G
ěku patnáct
F
let
Am
a znovu ř
G
íkám spoustu
F
něžných vět.
C
Ty,
F
já,
C
jsme,
F
my,
C
my a
G
náš je
F
svět.
C
Kdo tě hladí, když né
F
já,
C
kdo tě svádí, když né
F
já,
C
kdo tě zradí, když né
F
já,
C
ty,
F
já,
C
jsme,
F
my,
C
my a
G
náš byl
F
svět.
E----------------------------------------------------
H-----------5---10h-10-10-8--------------------------
G-----4-5-7---5-------------10h-9-10-9----9/10/9-----
D-5-7----------------------------------10------------
A------------------------------------------------10h-
E----------------------------------------------------
Report mistake
Verified by smartchords
Added by Hlady

Report an error in lyrics or chords

chord