Hlavní stránka
Skladby
Zpěvníky
Registrace
Přihlásit
EN CZ
CAPO 0
CAPO 0
0

Wish You Were Here

Pink Floyd

e|------------------3-3----------------3-3-------|
B|------------------3-3----------------3-3-------|
G|------------------0-0------0---------0-0-------| X2
D|-----------0--2---2-2---2-----2--0---0-0-------|
A|-------0h2--------X-X----------------2-2-------|
E|----3-------------X-X----------------3-3-------|

e|-------------------3-3-----------------3-3-------|
B|-------------------3-3-----------------3-3-------|
G|-------------------0-0-----------------2-2-------|
D|------------0--2---2-2---2--0----------2-2-------|
A|-------0h2---------X-X---------2--0----X-X-------|
E|----3--------------X-X-----------------X-X-------|

e|----------------3-3----------------3-3-------|
B|----------------3-3----------------3-3-------|
G|----------------0-0----------------0-0-------|
D|---------0--2---2-2---2--0---------0-0-------|
A|----0h2---------X-X---------2-0----X-X-------|
E|----------------X-X----------------X-X-------|

e|-------------3-3---------|
B|-------------3-3---------|
G|-------------0-0---------|
D|-------------0-0---------|
A|---0h2--0----2-2---------|
E|----------3--3-3---------|
C
So, so you think you can
D
tell
Heaven from
Am
hell
Blue skies from
G
pain
Can you tell a green
D
field
From a cold steel
C
rail?
A smile from a
Am
veil?
Do you think you can
G
tell?
Did they get you to
C
trade
Your heroes for
D
ghosts?
Hot ashes for
Am
trees?
Hot air for a
G
cool breeze?
Cold comfort for
D
change?
And did you ex
C
change
A walk on part in the
Am
war
For a lead role in a
G
cage?
e|------------------3-3----------------3-3-------|
B|------------------3-3----------------3-3-------|
G|------------------0-0------0---------0-0-------| X2
D|-----------0--2---2-2---2-----2--0---0-0-------|
A|-------0h2--------X-X----------------2-2-------|
E|----3-------------X-X----------------3-3-------|

e|-------------------3-3-----------------3-3-------|
B|-------------------3-3-----------------3-3-------|
G|-------------------0-0-----------------2-2-------|
D|------------0--2---2-2---2--0----------2-2-------|
A|-------0h2---------X-X---------2--0----X-X-------|
E|----3--------------X-X-----------------X-X-------|

e|----------------3-3----------------3-3-------|
B|----------------3-3----------------3-3-------|
G|----------------0-0----------------0-0-------|
D|---------0--2---2-2---2--0---------0-0-------|
A|----0h2---------X-X---------2-0----X-X-------|
E|----------------X-X----------------X-X-------|

e|-------------3-3---------|
B|-------------3-3---------|
G|-------------0-0---------|
D|-------------0-0---------|
A|---0h2--0----2-2---------|
E|----------3--3-3---------|
C
How I wish, how I wish you were
D
here
We're just
Am
two lost souls
Swimming in a fish bowl
G
Year after year
D
Running over the same old ground
And how we
C
found
The same old
Am
fears
Wish you were
G
here
e|------------------3-3----------------3-3-------|
B|------------------3-3----------------3-3-------|
G|------------------0-0------0---------0-0-------| X2
D|-----------0--2---2-2---2-----2--0---0-0-------|
A|-------0h2--------X-X----------------2-2-------|
E|----3-------------X-X----------------3-3-------|

e|-------------------3-3-----------------3-3-------|
B|-------------------3-3-----------------3-3-------|
G|-------------------0-0-----------------2-2-------|
D|------------0--2---2-2---2--0----------2-2-------|
A|-------0h2---------X-X---------2--0----X-X-------|
E|----3--------------X-X-----------------X-X-------|

e|----------------3-3----------------3-3-------|
B|----------------3-3----------------3-3-------|
G|----------------0-0----------------0-0-------|
D|---------0--2---2-2---2--0---------0-0-------|
A|----0h2---------X-X---------2-0----X-X-------|
E|----------------X-X----------------X-X-------|

e|-------------3-3---------|
B|-------------3-3---------|
G|-------------0-0---------|
D|-------------0-0---------|
A|---0h2--0----2-2---------|
E|----------3--3-3---------|

Skladba pochází se stejnojmenného alba z roku 1975. Pojednává o bývalém členovi Pink Floyd Sydu Barrettovi, o jeho psychických problémech a celkovém úpadku. Roku 2004 časopis Rolling Stone umístil skladbu na 316. místě v žebříčku 500 nejlepších skladeb všech dob.

Nahlásit chybu
Ověřeno uživatelem smartchords
Přidal Hlady

Nahlásit chybu v textu nebo akordech

chord