Hlavní stránka
Skladby
Zpěvníky
Registrace
Přihlásit
EN CZ
CAPO 0
CAPO 0
0

Under The Bridge

Red Hot Chili Peppers

e|---------------------------|---------------------------|
B|-3----------3--------------|-2-------------------------|
G|-------2-------2-----------|------------3--------------|
D|----4-----4----------------|-------4-------4---4-2-----|
A|-5-----------------4-2-----|----4-----4------------5-2-|
E|-----------------------5-4-|-2-------------------------|

e|-----------------------------|---------------------------|
B|-3-----------3h5p3-----------|---------------------------|
G|---------2---------2---------|------------3--------------|
D|-----4-----4-----------4/6-6-|-------4-------4---4-2-----|
A|-4/5---5---------------5/7-7-|----4-----4------------5-2-|
E|-----------------------------|-2-------------------------|

e|-----------------------------|---------------------------|
B|-3------------3--------------|-2-------------------------|
G|---------2-------2-----------|------------3--------------|
D|-----4------4----------------|-------4-------4---4-2-----|
A|-4/5---5-------------4-2-----|----4-----4------------5-2-|
E|-------------------------5-4-|-2-------------------------|

e|------------------------------|----------------------------|
B|-3------------3h5p3-----------|----------------------------|
G|---------2----------2---------|------------3-------3-------|
D|-----4------4-----------4/6-6-|-------4-------4------4-----|
A|-4/5---5----------------5/7-7-|----4-----4------4------4/7-|
E|------------------------------|-2--------------------------|
E
Sometimes I
B
feel
Like I
C#m
don't have a
Asus
partner
E
Sometimes I
B
feel
Like
C#m
my only f
Asus
riend
Is the
E
city I
B
live in
The
C#m
city of a
Asus
ngels
E
Lonely as
B
I am
To
C#m
gether we
Asus
cry
I
E
drive on
B
her streets
'Cause
C#m
she's my com
Asus
panion
I
E
walk through
B
her hills
'Cause
C#m
she knows
Asus
who I am
She
E
sees my good
B
deeds
And she
C#m
kisses me
Asus
windy
E
I never worry
Now
B
that is a
C#m
lie
Asus
C#m
I don't ever want to
Esus
feel
Bsus
Like I
Asus
did that day
C#m
Take me to the place I
Esus
love
Bsus
Take me
Asus
all the way
C#m
I don't ever want to
Esus
feel
Bsus
Like I
Asus
did that day
C#m
Take me to the place I
Esus
love
Bsus
Take me
Asus
all the way
C#m
Yeah,
Esus
yeah,
Bsus
yeah,
Asus
yeah
It's
E
hard to be
B
lieve
That there's
C#m
nobody
Asus
out there
It's
E
hard to be
B
lieve
That
C#m
I'm all a
Asus
lone
At
E
least I have
B
her love
The
C#m
city she
Asus
loves me
E
Lonely as
B
I am
To
C#m
gether we
Asus
cry
C#m
I don't ever want to
Esus
feel
Bsus
Like I
Asus
did that day
C#m
Take me to the place I
Esus
love
Bsus
Take me
Asus
all the way
C#m
I don't ever want to
Esus
feel
Bsus
Like I
Asus
did that day
C#m
Take me to the place I
Esus
love
Bsus
Take me
Asus
all the way
C#m
Yeah,
Esus
yeah,
Bsus
yeah,
Asus
yeah
C#m
Yeah, yeah
Esus
, yeah
Bsus
Asus
C#m
Ooh no, no no,
Esus
yeah,
Bsus
yeah
Asus
C#m
Love me I say
Esus
yeah
Bsus
yeah
Asus
C#m
One time
Esus
Bsus
Asus
C#m
Under the bridge
Esus
downtown
Bsus
Is were I
Asus
drew some blood
C#m
Under the bridge
Esus
downtown
Bsus
I could not
Asus
get enough
C#m
Under the bridge
Esus
downtown
Bsus
Forgot about
Asus
my love
C#m
Under the bridge d
Esus
owntown
Bsus
I gave my li
Asus
fe away
C#m
Yeah, yeah
Esus
, yeah
Bsus
Asus
C#m
Ooh no, no no,
Esus
yeah,
Bsus
yeah
Asus
C#m
Love me I say
Esus
yeah
Bsus
yeah
Asus
C#m
Here I stay
Esus
Bsus
Asus
E

Nahlásit chybu
Ověřeno uživatelem smartchords
Přidal Hlady

Nahlásit chybu v textu nebo akordech

chord