Hlavní stránka
Skladby
Zpěvníky
Registrace
Přihlásit
EN CZ
CAPO 0
CAPO 0
0

This Is The Life

Amy MacDonald

C#m
A
E
G#m

Oh the
C#m
wind whistles down
The
A
cold dark street tonight
And the
E
people they were dancing 
G#m
to the music vibe
And the
C#m
boys chase the girls with the curls in their hair
While the
A
shy tormented youth sit way over there
And the
E
songs they get louder
Each one better than be
G#m
fore
And you're
C#m
singing the songs
Thinking this is the life
And you
A
wake up in the morning and your head feels twice the size
E
Where you gonna go?
Where you gonna go?
Where you gonna sleep to
G#m
night?
And you're
C#m
singing the songs
Thinking this is the life
And you
A
wake up in the morning and your head feels twice the size
E
Where you gonna go? Where you gonna go?
Where you gonna sleep to
G#m
night?
Where you gonna sleep to
C#m
night?
e|-------------------------------------------------------------2-4-----2-4--2------------------|
B|--2-4-5---2-2-2--4-5---2-2-2-2--4-5---2-2-2--4-5----5-5-5-5-------5----------5--4~~~-4b5b4p--|
G|---------------------------------------------------------------------------------------------|
D|---------------------------------------------------------------------------------------------|
A|---------------------------------------------------------------------------------------------|
E|---------------------------------------------------------------------------------------------|
So your
C#m
heading down the road in your taxi for four
And you're
A
waiting outside Jimmy's front door
But
E
nobody's in and nobody's home 'til
G#m
four
So you're
C#m
sitting there with nothing to do
Talking
A
about Robert Riger and his motley crew
And
E
where you're gonna go and where you're gonna sleep to
G#m
night
And you're
C#m
singing the songs
Thinking this is the life
And you
A
wake up in the morning and your head feels twice the size
E
Where you gonna go?
Where you gonna go?
Where you gonna sleep to
G#m
night?
And you're
C#m
singing the songs
Thinking this is the life
And you
A
wake up in the morning and your head feels twice the size
E
Where you gonna go? Where you gonna go?
Where you gonna sleep to
G#m
night?
Where you gonna sleep to
C#m
night?

(2x)

e|-------------------------------------------------------------2-4-----2-4--2------------------|
B|--2-4-5---2-2-2--4-5---2-2-2-2--4-5---2-2-2--4-5----5-5-5-5-------5----------5--4~~~-4b5b4p--|
G|---------------------------------------------------------------------------------------------|
D|---------------------------------------------------------------------------------------------|
A|---------------------------------------------------------------------------------------------|
E|---------------------------------------------------------------------------------------------|
And you're
C#m
singing the songs
Thinking this is the life
And you
A
wake up in the morning and your head feels twice the size
E
Where you gonna go?
Where you gonna go?
Where you gonna sleep to
G#m
night?
And you're
C#m
singing the songs
Thinking this is the life
And you
A
wake up in the morning and your head feels twice the size
E
Where you gonna go?
Where you gonna go?
Where you gonna sleep to
G#m
night?
And you're
C#m
singing the songs
Thinking this is the life
And you
A
wake up in the morning and your head feels twice the size
E
Where you gonna go?
Where you gonna go?
Where you gonna sleep to
G#m
night?
And you're
C#m
singing the songs
Thinking this is the life
And you
A
wake up in the morning and your head feels twice the size
E
Where you gonna go? Where you gonna go?
Where you gonna sleep to
G#m
night?
Where you gonna sleep to
C#m
night?
e|-------------------------------------------------------------2-4-----2-4--2------------------|
B|--2-4-5---2-2-2--4-5---2-2-2-2--4-5---2-2-2--4-5----5-5-5-5-------5----------5--4~~~-4b5b4p--|
G|---------------------------------------------------------------------------------------------|
D|---------------------------------------------------------------------------------------------|
A|---------------------------------------------------------------------------------------------|
E|---------------------------------------------------------------------------------------------|
Nahlásit chybu
Ověřeno uživatelem smartchords
Přidal Hlady

Nahlásit chybu v textu nebo akordech

chord