Hlavní stránka
Skladby
Zpěvníky
Registrace
Přihlásit
EN CZ
CAPO 0
CAPO 0
0

The One I Love

R.E.M.


Em7
|------------------0-------0--------0----0--------0------0|
|---------------------3/5----0---------3------0-------0---|
|-----------------------------------------------0-------0-|
|-------------0-------------------------------------------|
|----------0----------------------2-----------------------|
|-0-0-2/3-----------------------0-------------------------|
Em
This one goes out to
Dsus2
the one I
Em
love
Em7
Em
This one goes out to
Dsus2
the one I've
Em
left be
Em7
hind
G
A simple
D
prop to
Am
occupy my
C
time
Em
This one goes out to
Dsus2
the one I
Em
love
Em7
Em
Fire
Dsus2
Em
Em7
Em
Fire
Dsus2
Em
Em7
e|----------------------------------------------------------|
B|----3----5--3---------3------5--3---------3-----5--3---3/5|
G|-2/4----4--------2/4-------4---------2/4-------4----------|
D|----------------------------------------------------------|
A|----------------------------------------------------------|
E|----------------------------------------------------------|

e|----------------------------------------------------------|
B|3-----------------------------------3---------------------|
G|----4--2--0------------0---0--2/4------4--2-0-----------0-|
D|-------------2--0--2-----2---------------------2--0--2----|
A|----------------------------------------------------------|
E|----------------------------------------------------------|

e|-0--------------------------------------------------------|
B|--------3-------------------------------------------------|
G|----------------------------------------------------------|
D|-----------------2----------------------------------------|
A|----------------------------------------------------------|
E|-------------3--------------------------------------------|
Em
This one goes out to
Dsus2
the one I
Em
love
Em7
Em
This one goes out to
Dsus2
the one I've
Em
left be
Em7
hind
G
Another 
D
prop to
Am
occupied my
C
time
Em
This one goes out to
Dsus2
the one I
Em
love
Em7
Em
Fire (
Dsus2
she’s
Em
comin’
Em7
down on her own, now)
Em
Fire (
Dsus2
she’s
Em
comin’
Em7
down on her own, now)
Em
This one goes out to
Dsus2
the one I
Em
love
Em7
Em
This one goes out to
Dsus2
the one I've
Em
left be
Em7
hind
G
Another 
D
prop to
Am
occupied my
C
time
Em
This one goes out to
Dsus2
the one I
Em
love
Em7
Em
Fire (
Dsus2
she’s
Em
comin’
Em7
down on her own, now)
Em
Fire (
Dsus2
she’s
Em
comin’
Em7
down on her own, now)
Em
Fire (
Dsus2
she’s
Em
comin’
Em7
down on her own, now)
Em
Fire (
Dsus2
she’s
Em
comin’
Em7
down on her own, now)

e|
Em7
------------------|
B|------------3-4-5-|
G|------------2-3-4-|
D|----------0-0-1-2-|
A|--------0---------|
E|-0--0-3-----------|
Nahlásit chybu
Ověřeno uživatelem smartchords
Přidal Hlady

Nahlásit chybu v textu nebo akordech

chord