Hlavní stránka
Skladby
Zpěvníky
Registrace
Přihlásit
EN CZ
CAPO 0
CAPO 0
0

Stejně jako já

Chinaski

e|----------------|----------------|----------------|---------------------|
B|----------------|---------15-----|----------------|---------------------|
G|--11-11---------|11-12-14--------|--12-x-12-------|--12-x-12------------|
D|--12-12---------|----------------|--12-x-12-14-12-|--12-x-12-14-12---12-|
A|----------------|----------------|----------------|----------------14---|
E|----------------|----------------|----------------|---------------------|

e|----------------|----------------|----------------|----------------|
B|----------------|---------15-----|----------------|----------------|
G|--11-11---------|11-12-14--------|12---12------12-|12---12------12-|
D|--12-12---------|----------------|12---12------12-|10---10------10-|
A|----------------|----------------|----------------|----------------|
E|----------------|----------------|----------------|----------------|
Do práce
D
nevstávám
svou ženu nemiluju
svinstva si
G
nepíchám
budoucnost
C
nemaluju
Po ránu
D
nesnídám
složenky vyhazuju
milenky
G
nestřídám
slzy si
C
zakazuju
Špatně se
D
oblíkám
noviny nekupuju
něco si
G
namlouvám
v něčem si
C
důvěřuju
Moc dlouho
D
vybírám
těžko se rozhoduju
a když se
G
do toho dám
ničeho
C
nelituju
A
Bm
ty mi to
E
vyčítáš
a
G
já se vůbec
C
nebráním
a
Bm
ty se na mě
E
podíváš
a já
G
vím
že v podstatě jseš na tom stejně jako
D

e|
G
----------------|
C
----------------|
D
----------------|----------------|
B|12----10----8---|8---------10-12-|10--------------|----------------|
G|----------------|----------------|----------------|----------------|
D|----------------|----------------|----------------|----------------|
A|----------------|----------------|----------------|----------------|
E|----------------|----------------|----------------|----------------|

e|
G
----------------|
C
----------------|
D
----------------|----------------|
B|12----10----8---|8---------------|----------------|----------------|
G|----------------|------------7-9-|7---------------|----------------|
D|----------------|----------------|----------------|----------------|
A|----------------|----------------|----------------|----------------|
E|----------------|----------------|----------------|----------------|
V podstatě
D
nedalas mi šanci
nikdy cokoliv říct
G
zabalíš si věci
přijdeš
C
za měsíc
D
A já čekám telefon
snad aspoň
G
zavoláš
jestli
C
já nebo on
A
Bm
já ti to
E
vyčítám
a
G
ty se vůbec
C
nebráníš
a j
Bm
á se na tě
E
podívám
a ty
G
víš
že v
C
podstatě jseš na tom
G
stejně jako
D
v podstatě jseš na tom stejně jako já
v
G
podstatě jseš na tom
C
stejně jako
D
v podstatě jseš na tom stejně jako já
G
C
A
Bm
ty mi to
E
vyčítáš
a
G
já se vůbec
C
nebráním
a
Bm
ty se na mě
E
podíváš
a já
G
vím
že v podstatě jseš na tom stejně jako
D

e|
G
----------------|
C
----------------|
D
----------------|----------------|
B|12----10----8---|8---------10-12-|10--------------|----------------|
G|----------------|----------------|----------------|----------------|
D|----------------|----------------|----------------|----------------|
A|----------------|----------------|----------------|----------------|
D|----------------|----------------|----------------|----------------|

e|
G
----------------|
C
----------------|
D
----------------|----------------|
B|12----10----8---|8---------------|----------------|----------------|
G|----------------|------------7-9-|7---------------|----------------|
D|----------------|----------------|----------------|----------------|
A|----------------|----------------|----------------|----------------|
D|----------------|----------------|----------------|----------------|
v
D
podstatě jseš na tom stejně jako
G
v
G
podstatě jseš na tom
C
stejně jako
D
v
D
podstatě jseš na tom stejně jako
G
v
G
podstatě jseš na tom
C
stejně jako
D
Nahlásit chybu
Ověřeno uživatelem smartchords
Přidal Hlady

Nahlásit chybu v textu nebo akordech

chord