Hlavní stránka
Skladby
Zpěvníky
Registrace
Přihlásit
EN CZ
CAPO 6
CAPO 6
0
CAPO 6

Sound of Silence

Simon & Garfunkel


Am
Am
G
G

e|---0---0---0---0-|---0---0---0---0-|-----------------|-----------------|
B|-----0-------0---|-----0-------0---|---3---3---3---3-|---3---3---3---3-|
G|-2-------2-------|-2-------2-------|-0---2---4---2---|-0---2---4---2---|
D|-----------------|-----------------|-----------------|-----------------|
A|-----------------|-----------------|-----------------|-----------------|
E|-----------------|-----------------|-----------------|-----------------|

Am
Am
F
C
C

e|---0---0---0---0-|---0---0---0---0-|---1---1---0---0-|-1-0---0---0---0-|
B|-----0---1---0---|-----0---1---0---|-----1-------1---|-----1-------1---|
G|-2---------------|-2---------------|-2-------0-------|---------0-------|
D|-----------------|-----------------|-----------------|-----------------|
A|-----------------|-----------------|-----------------|-----------------|
E|-----------------|-----------------|-----------------|-----------------|

F
C
C
F
F
F
C

e|---1---1---0---0-|-1-0---0---1---1-|---1---1---1---1-|---1---1---------|
B|-----1-------1---|-----1-------1---|-----1-------1---|-----1-----1---1-|
G|-2-------0-------|---------2-------|-3-------2-------|-3-----------0---|
D|-----------------|-----------------|-----------------|---------2-------|
A|-----------------|-----------------|-----------------|-----------------|
E|-----------------|-----------------|-----------------|-----------------|

C
Am
G
Am

e|-----------------|-----------------|-----------------|---0---0---0---0-|
B|---1---1---1---1-|---1---1---1---1-|---3---3---3---3-|-----0---1---0---|
G|-----0-------0---|-----2-------2---|-0---2---4---2---|-2---------------|
D|-3-------2-------|-2-------2-------|-----------------|-----------------|
A|-----------------|-----------------|-----------------|-----------------|
E|-----------------|-----------------|-----------------|-----------------|
Am
Hello darkness, my old
G
friend
I've come to talk with you
Am
again
Because a vision softl
F
y creep
C
ing
Left its seeds while I
F
was slee
C
ping
And the
F
vision that was planted in my
C
brain
Still rem
Am
ains
Within the
G
sound of
Am
silence
Am
In restless dreams I walked a
G
lone
Narrow streets of cobble
Am
stone
'Neath the halo of
F
a street
C
lamp
I turned my collar to the
F
cold and
C
damp
When my
F
eyes were stabbed by the flash of a neon l
C
ight
That split the
Am
night
And touched the
G
sound of
Am
silence
Am
And in the naked light I
G
saw
Ten thousand people, maybe
Am
more
People talking with
F
out spea
C
king
People hearing with
F
out liste
C
ning
People writing
F
songs that voices never
C
share
And no one
Am
dared
Disturb the
G
sound of
Am
silence
Am
"Fools", said I, "You do not
G
know
Silence like a cancer
Am
grows
Hear my words that I
F
might teach
C
you
Take my arms that I
F
might reach
C
you"
But my
F
words, like silent raindrops
C
fell
And ech
Am
oed
In the
G
wells of
Am
silence
Am
And the people bowed and
G
prayed
To the neon god they
Am
made
And the sign flashed out
F
its war
C
ning
In the words that it
F
was for
C
ming
And the sign said, "The
F
words of the prophets are written on the subway
C
walls
And tenement halls"
Am
And wh
C
ispered in the
G
sounds of
Am
silence
e|---0---0---0---0-|---0---0---0---0-|---0---0---0---0-|-0---------------|
B|-----0-------0---|-----0-------0---|-----0-------0---|-0---------------|
G|-2-------2-------|-2-------2-------|-2-------2-------|-2---------------|
D|-----------------|-----------------|-----------------|-2---------------|
A|-----------------|-----------------|-----------------|-0---------------|
E|-----------------|-----------------|-----------------|-0---------------|

Skladba vyšla jako singl 1965 a vyjadřuje atmosféru a emocionální trauma po atentátu na prezidenta J. F. Kennedyho.

Nahlásit chybu
Ověřeno uživatelem smartchords
Přidal Hlady

Nahlásit chybu v textu nebo akordech

chord