Hlavní stránka
Skladby
Zpěvníky
Registrace
Přihlásit
EN CZ
CAPO 0
CAPO 0
0

Slunečný hrob

Blue Effect

Vladimír Mišík
Jiří Smetana

Tato vyhrávka hraje po celou dobu písně, kromě refrénů

e|--
E
------0-----
F#m
------0------
G#m
------0-----
F#m
------0------|
H|----------------------------------------------------|
G|-----1-----------2------------4-----------2---------|
D|----------------------------------------------------|
A|----------------------------------------------------|
E|--0--------0--2---------2--4--------4--2---------2--|
E
Usínám a
F#m
chtěl bych se vrátit
o n
G#m
ějakej ten rok z
F#m
pátky,
E
bejt zase malým
F#m
klukem,
kterej si
G#m
rád hraje a který je
F#m
s
E
tebou.
e|--------------------------------4s7-7s9--|
H|------------------------5s7-7s9----------|
G|--------------4-4s6-6s9------------------|
D|----------6s9----------------------------|
A|----7-9-7--------------------------------|
E|-s9--------------------------------------|
E
Zdá se
F#m
mi,
G#m
je to
F#m
moc let,
E
já byl
F#m
kluk,
G#m
kterej
F#m
chtěl
E
znáti
F#m
svět,
G#m
s tebou
F#m
jsem si
E
hrál.
e|---------0-----|-------0------|---------0-----|
H|------------3--|----------2---|------------1--|
G|--3-/4---------|--4-/3--------|---3-/2--------|
D|--4-/5---------|--5-/4--------|---4-/3--------|
A|---------------|--------------|---------------|
E|---------------|--------------|---------------| 
E
Vrátím
F#m
se a ch
G#m
těl bych
F#m
rád
E
být
F#m
s tebou,
G#m
zavzpo
F#m
mínat,
E
mám tu
F#m
teď
G#m
ale zpr
F#m
ávu zlou.
E
E7

C#m
Suc
D#m
A
hlína
G#m
ta
F#m
dy,
C#m
bez
D#m
kví
A
tí, bez
G#m
vo
F#m
dy,
G#m
já na ni
F#m
poklekám,
G#m
vzpomínkou poc
B
ta se vzdává.
E
Loučím
F#m
se
G#m
a něc
F#m
o však
tam
E
zůstalo
F#m
G#m
z těch našich dnů,
F#m
E
já teď
F#m
vím, věrný
F#m
zůstanu.
e|---------0-----|-------0------|---------0-----|
H|------------3--|----------2---|------------1--|
G|--3-/4---------|--4-/3--------|---3-/2--------|
D|--4-/5---------|--5-/4--------|---4-/3--------|
A|---------------|--------------|---------------|
E|---------------|--------------|---------------| 
e|----------------------------------------------------------------------------|
H|-s17~~-12h14-12-14~~-12h14-12----------------12h14-12----------------12h14--|
G|------------------------------13~--11-12-13~----------13-11h13-11-13--------|
D|----------------------------------------------------------------------------|
A|----------------------------------------------------------------------------|
E|----------------------------------------------------------------------------|

e|-------12-14-------12-14-------12-14-------12-14--12-14--16s19-17h19p17-----|
H|-12s14-------12s14-------12s14-------12s14----------------------------------|
G|----------------------------------------------------------------------------|
D|----------------------------------------------------------------------------|
A|----------------------------------------------------------------------------|
E|----------------------------------------------------------------------------|

e|-14h16p14-12h14p12-12----12~~-12h14-14h16-16h19-19-19h21-19-19~~~-----------|
H|----------------------14----------------------------------------------------|
G|----------------------------------------------------------------------------|
D|----------------------------------------------------------------------------|
A|----------------------------------------------------------------------------|
E|----------------------------------------------------------------------------|
E
E7

C#m
Suc
D#m
A
hlína
G#m
ta
F#m
dy,
C#m
bez
D#m
kví
A
tí, bez
G#m
vo
F#m
dy,
G#m
já na ni
F#m
poklekám,
G#m
vzpomínkou poc
B
ta se vzdává.
E
Loučím
F#m
se
G#m
a něc
F#m
o však
tam
E
zůstalo
F#m
G#m
z těch našich dnů,
F#m
E
já teď
F#m
vím, věrný
F#m
zůstanu.
E
Nemohu spát,
F#m
probouzím se
a z
G#m
ase se nemohu ubránit
F#m
myšlence,
E
vrátit se o nějakej ten
F#m
rok zpátky,
G#m
bejt zase malým
F#m
klukem,
E
kterej si rád
F#m
hraje,
G#m
který je s
F#m
tebou.
Nahlásit chybu
Ověřeno uživatelem smartchords
Přidal Hlady

Nahlásit chybu v textu nebo akordech

chord