Hlavní stránka
Skladby
Zpěvníky
Registrace
Přihlásit
EN CZ
CAPO 0
CAPO 0
0

Slečna Anna je za vodou

Wanastowi Vjecy


Em
G
A
C
Em
G
C
e--------------------------------------
h----------------------8~-10p12p10-8~--
g--9~-7/9/7-6-/9-5-9~------------------
D--------------------------------------
A--------------------------------------
E--------------------------------------
Slečna
Em
Anna je
G
za vodou,
jsem
Am
sám s hořkou
C
svobodou
J
Em
á fakt nevím,
G
co bude
Am
dál
Em
Dejchám vzduch
G
se zradou,
Anna to
Am
netuší, nevní
C
Em
Tak tu musím
G
na mostě
Am
stát
C
Panebože, vrať mi
Em
vílu,
D
nebo jenom trochu její
C
lásky
Em
Víš, já
G
musím skočit,
D
mám ji tak
A
rád
C
Panebože, dej mi
Em
sílu,
D
vzpomenu si na obr
C
ázky
Em
Bylo léto
G
devětad
D
evades
A
át
Em
C
Em
C
A

Slečna
Em
Anna je
G
za vodou,
kles
Am
ám černou p
C
ohodou
V
Em
ážně nevím,
G
co uděl
Am
ám
Kr
Em
áska se n
G
ezabíjí,
ona se v
Am
zrcadlech objí
C
Tak
Em
proč chci na tom
G
hnusným mostě st
Am
át
Em
Ne, teď se
G
nerozejdem,
Am
ne jenom
C
pro blbej den
Em
Anna, srdce
G
a sabot
Am
áž
Em
Ne, já to
G
neposbírám,
Am
ne, jizvy
C
neotvírám
Em
Bez moře
G
neztroskot
Am
áš
C
Panebože, vrať mi
Em
vílu,
D
nebo jenom trochu její
C
lásky
Em
Víš, já
G
musím skočit,
D
mám ji tak
A
rád
C
Panebože, dej mi
Em
sílu,
D
vzpomenu si na obr
C
ázky
Em
Bylo léto
G
devětad
D
evades
A
át

Em
G
A
C
Em
G
C
e--------------------------------------
h----------------------8~-10p12p10-8~--
g--9~-7/9/7-6-/9-5-9~------------------
D--------------------------------------
A--------------------------------------
E--------------------------------------
Slečna
Em
Anna je
G
za vodou,
jsem s
Am
ám s hořkou
C
svobodou
V
Em
ážně nevím,
G
co uděl
Am
ám
D
Em
ejchám vzduch
G
se zradou,
Anna to
Am
netuší, nevní
C
Tak
Em
proč tu musím
G
na mostě st
Am
át
C
Panebože, vrať mi
Em
vílu,
D
nebo jenom trochu její
C
lásky
Em
Víš, já
G
musím skočit,
D
mám ji tak
A
rád
C
Panebože, dej mi
Em
sílu,
D
vzpomenu si na obr
C
ázky
Em
Bylo léto
G
devětad
D
evades
A
át
C
Panebože, vrať mi
Em
vílu,
D
nebo jenom trochu její
C
lásky
Em
Víš, já
G
musím skočit,
D
mám ji tak
A
rád
Panebože vrať mi ji...

Em
C
Em
C
Em
C
A

e-----------------------------------
h-------------------8~-10p12p10-8~--
g---/9/12--9--5--9------------------
D-----------------------------------
A-----------------------------------
E-----------------------------------
Nahlásit chybu
Ověřeno uživatelem smartchords
Přidal Hlady

Nahlásit chybu v textu nebo akordech

chord