Hlavní stránka
Skladby
Zpěvníky
Registrace
Přihlásit
EN CZ
CAPO 0
CAPO 0
0

Serve The Servants

Nirvana


eb|-----------14------|-----------------------------------|---------------|
Bb|--13----------14\--|-----------------------3-----------|---------------|
Gb|--12---------------|-----2-----2-----------------------|------5--5-5-0-|
Db|--11---------------|---1---------0---2-2-2-----2--2----|-4-4--5--5-5-0-|
Ab|--x----------------|-2-------2-------------------------|-4-4--3--3-3-0-|
Eb|--0----------------|---------------------------------0-|-2-2-----------|
 
eb|-------2--2-2------|-----------------------------------|---------------|
Bb|-------0--0-0-0----|-----------------------3-----------|---------------|
Gb|-------2--2-2-0----|------2----2-----------------------|------5--5-5-0-|
Db|-2-2---1--1-1-0----|----1--------0---2-2-2-----2--2----|-4-4--5--5-5-0-|
Ab|-2-2---2--2-2-0----|2-2------2-------------------------|-4-4--3--3-3-0-|
Eb|-0-0---0--0-0------|---------------------------------0-|-2-2-----------|

eb|-------2--2-2-----|
Bb|-------0--0-0-0---|
Gb|-------2--2-2-0---|
Db|-2-2---1--1-1-0---|
Ab|-2-2---2--2-2-0---|
Eb|-0-0---0--0-0-----|
B7
Teenage angst has
E7
paid off well
F#7
Now I'm bored and
E7
old
B7
Self-appointed
E7
judges judge
F#7
More than they have
E7
sold
B7
If she floats than
E7
she is not
F#7
A witch like we have
E7
thought
B7
A downpayment
E7
on another
F#7
One at Salem's
E7
lot
A
Serve the s
C#m
ervants, oh n
A
o
A
Serve the s
C#m
ervants, oh n
A
o
A
Serve the s
C#m
ervants, oh n
A
o
A
Serve the s
C#m
ervants
That l
F#
egendary div
G
orce is such a b
B7
ore
B7
As my bones grew
E7
they did hurt
F#7
They hurt really
E7
bad
B7
I tried hard to
E7
have a father
F#7
But instead I had a
E7
dad
B7
I just want you
E7
to know that I
F#7
Don't hate you a
E7
nymore
B7
There is nothing
E7
I could say
F#7
That I haven't thought be
E7
fore
A
Serve the s
C#m
ervants, oh n
A
o
A
Serve the s
C#m
ervants, oh n
A
o
A
Serve the s
C#m
ervants, oh n
A
o
A
Serve the s
C#m
ervants
That l
F#
egendary div
G
orce is such a b
B7
ore
eb|------------------------------------------------------------------------|
Bb|------------0---0-------------------------------------------------------|
Gb|-4b--4---4----4---4--4--4--4--4--4--4--4--4--4--4--4---4---4-4r--4-4-4-4|
Db|------------------------------------------------------------------------|
Ab|------------------------------------------------------------------------|
Eb|------------------------------------------------------------------------|

eb|---------------|------------------0---0--0---------|-------------------|
Bb|-----------0---|------------------0---0--0---------|-------------------|
Gb|--4--2--0--0---|------------------0---0--0---------|-------------------|
Db|-----------0---|------------------0---0--0---------|----7b-------------|
Ab|-----------0---|------------------0---0--0---2--0--|-7--7b----5--------|
Eb|---------------|-3--3b---3bp0-----0---0--0---------|----------------7--|

eb|------------------------|----------------------------------------------|
Bb|------------------------|----------------------------------------------|
Gb|------------------------|----------------------------------------------|
Db|------------------------|----------------------------------------------|
Ab|-0h2-2b=====r---2~~~~~--|-2/4--4--4b----4b===r---4\2--2--2~~~--2--2----|
Eb|------------------------|--------------------------------------------0-|

eb|----------------------------------------------------------------------|
Bb|----------------------------------------------------------------------|
Gb|----------------------------------------------------------------------|
Db|------14b-14-14-14-14-14r--14b----------------------------------------|
Ab|-/16--16b-16-16-16-16-16r--16b--16\--------------------------------0--|
Eb|------------------------------------5-5~~~~5-5/7--7b---7b---7~~~~~~---|

eb|-------------------------------------------------|--------------------|
Bb|----------------8---------------10-10-10--8------|--------------------|
Gb|-----4--6--6/7------6--7---7/9--9--9--9---7\6--6-|6/7-7-6h7--6h7--6h7-|
Db|-4/6---------------------------------------------|--------------------|
Ab|-------------------------------------------------|--------------------|
Eb|-------------------------------------------------|--------------------|

eb|----------------------------------------------------------------------|
Bb|---------------0--0--0----0--0----0-----------------------------------|
Gb|---7\6---6\4---4--4--4\2--2--2--2\0-----------------------------------|
Db|----------------------------------------------------------------------|
Ab|----------------------------------------------------------------------|
Eb|----------------------------------------------------------------------|
A
Serve the s
C#m
ervants, oh n
A
o
A
Serve the s
C#m
ervants, oh n
A
o
A
Serve the s
C#m
ervants, oh n
A
o
A
Serve the s
C#m
ervants
That l
F#
egendary div
G
orce is such a b
B7
ore

Skladba ze třetího a posledního studiového alba In Utero (1993).

Nahlásit chybu
Ověřeno uživatelem smartchords
Přidal Hlady

Nahlásit chybu v textu nebo akordech

chord