Hlavní stránka
Skladby
Zpěvníky
Registrace
Přihlásit
EN CZ
CAPO 0
CAPO 0
0

Sappy

Nirvana

C#5
And if you
A5
save your
F#5
self,
G#5
You will
A5
make him
B5
happy!
C#5
He'll keep you
A5
in a
F#5
jar,
G#5
And you'll think
A5
you're
B5
happy
C#5
He'll give you
A5
breathing
F#5
holes,
G#5
And you'll think
A5
you're
B5
happy
C#5
He'll cover
A5
you with
F#5
grass,
G#5
And you'll think
A5
you're
B5
happy, n
C#5
ow!
A5
You're in a
F#5
laundry room,
A5
You're in a
F#5
laundry room,
A5
Conclusion
F#5
came to
A5
you,
G#5
ohhh.
C#5
And if you
A5
save your
F#5
self,
G#5
You will
A5
make him
B5
happy!
C#5
He'll keep you
A5
in a
F#5
jar,
G#5
And you'll think
A5
you're
B5
happy
C#5
He'll give you
A5
breathing
F#5
holes,
G#5
And you'll think
A5
you're
B5
happy
C#5
He'll cover
A5
you with
F#5
grass,
G#5
And you'll think
A5
you're
B5
happy, n
C#5
ow!
A5
You're in a
F#5
laundry room,
A5
You're in a
F#5
laundry room,
A5
Conclusion
F#5
came to
A5
you,
G#5
ohhh.
e|---------------------------------------------------------------------------|
B|---------------------------------------------------------------------------|
G|-------------------4-4-6-6-6-8-8-8-8-8b-8-6-8-8b-8b-8-6--------------------|
D|-------2-4/6--4-6----------------------------------------------------------|
A|--2/4---------------------------------------------------1-2-2-1------------|
E|-----------------------------------------------------------------4-2-------|

e|---------------------------------------------------------------------------|
B|---------------------------------------------------------------------------|
G|---------------------------------------------------------------------------|
D|---------------------------------------------------------------------------|
A|----------------------------------------------------------11-13-13-14------|
E|--2-0-2-2b-0-0-0-0-2-2-2-4-4-4-6-6-7-7-9-9-11-11-11-11b-9------------------|

e|---------------------------------------------------------------------------|
B|---------------------------------------------------------------------------|
G|-------------------11-11------11b-11---------------------------------------|
D|-----11-11-14--14---------14----------14--11---13-14-14-14--13--13---------|
A|--14-----------------------------------------------------------------------|
E|---------------------------------------------------------------------------|

e|---------------------------------------------------------------------------|
B|---------------------------------------------------------------------------|
G|---------------------------------------------------------------------------|
D|--11-11-11-11-11-11-13-14-14-13-14-13-11-11--11/13--13-13\11-11\9----------|
A|---------------------------------------------------------------------------|
E|---------------------------------------------------------------------------|

e|------------------|
B|------------------|
G|------------------|
D|------------------|
A|--9\8-8\6-6\4-4---|
E|------------------|
A5
You're in a
F#5
laundry room,
A5
You're in a
F#5
laundry room,
A5
Conclusion
F#5
came to
A5
you,
G#5
ohhh.
C#5
And if you
A5
fool your
F#5
self,
G#5
You will
A5
make him
B5
happy!
C#5
He'll keep you
A5
in a
F#5
jar,
G#5
Then you'll think
A5
you're
B5
happy
C#5
He'll give you
A5
breathing
F#5
holes,
G#5
Then you
A5
will seem
B5
happy
C#5
You'll wallow
A5
in the
F#5
shit,
G#5
Then you'll think
A5
you're
B5
happy, n
C#5
ow!
A5
You're in a
F#5
laundry room,
A5
You're in a
F#5
laundry room,
A5
You're in a
F#5
laundry room,
A5
Conclusion
F#5
came to
A5
you,
G#5
ohhh...
Nahlásit chybu
Ověřeno uživatelem smartchords
Přidal Hlady

Nahlásit chybu v textu nebo akordech

chord