Hlavní stránka
Skladby
Zpěvníky
Registrace
Přihlásit
EN CZ
CAPO 0
CAPO 0
0

Queen & David Bowie

Under Pressure


E|
D
-----------------------------------|
B|-----------------------------------|
G|-----------------------------------|
D|-----------------------------------|
A|-----------------------------------|
E|----10--10--10---10-10-10---5------|
E|
D
------------5-------|
A
---9------------|
G
----7-----------|
A
---5---------------|
B|------7-------------|--------10------|---------8------|--------5----------|
G|----7---7-------7---|-9---9-------9--|--7---7-----7---|-6---6----7-6-4----|
D|--------------------|----------------|----------------|----------------7--|
A|--------------------|----------------|----------------|-------------------|
E|--------------------|----------------|----------------|-------------------|
D
Um boom ba bay
A
Um boom ba bay
G
Um Um boom ba bay bay
A

D
Pressure
Pushing
A
down on me
Pressing
G
down on you
No man ask
A
for
Under
D
pressure
That burns a
A
building down
Splits a
G
family in two
Puts
A
people on street
D
Um ba ba bay
A
Um ba ba bay
G
Dee day duh
A
Ee day duh
It's the
G
terror of knowing
What this
A
world is about
G
Watching some good friends
Screaming
A
let me out!
Pray
G
tomorrow takes me
A
higher
D
Pressure on people
People
G
on str
A
eets
(Intro riff)
Day day day
da da dup bup bup
Okay
D
Chippin' around
A
I kick my brains round the floor
G
These are the days
It
A
never rains but it pours
D
Ee do bay bup
A
Ee do bay ba bup
G
Ee do bup
A
Bay bup
D
People on streets
A
Dee da dee da day
G
People on streets
A
Dee da dee da dee da dee da
It's the
G
terror of knowing
What this
A
world is about
G
Watching some good friends
Screaming
A
let me out!
G
Pray tomorrow
Takes me high high h
A
igher
G
Turned away from it all
Like the
C
blind man
G
Sat on a fence but it
C
don't work
G
Keep coming up with love
But it's so
A
slashed and torn
C
Why?
F
Wh
G
y?
F
A
Love Love Love!
A
Insanity laughs under pressure we're cracking
Can't we
D
give ourselves one more
G
chance?
A
Why can't we
D
give love that one more
G
chance?
A
Why can't we
D
give love
A
give love
D
give love?
A
G
Give love
A
give love
D
give love
A
give love
G
give love
A
give love?
Cause
G
love's such an
A
old fashioned
D
word
And love
A
dares you to
G
care
For the
A
people on the
D
edge of the
A
night
And love
G
dares you to
A
change our way
Of
D
caring abou
A
t ourselves
G
This is our
A
last dance
G
This is our
A
last chance
D
This
A
is our
G
selves
Under Pressure
(Intro riff)

D
Under
A
Pressure
D
Pre
G
ssu
A
re
D
Nahlásit chybu
Ověřeno uživatelem smartchords
Přidal Hlady

Nahlásit chybu v textu nebo akordech

chord