Hlavní stránka
Skladby
Zpěvníky
Registrace
Přihlásit
EN CZ
CAPO 0
CAPO 0
0

Pohoda

Kabát

   
   
D
       
A
              
E
              
D
 
e|---2-x-0---------------------------------------------|
H|-3-------3------2---0---5-7-5---5------2s3-3-3-2-2-2-|
G|-2---------2--2---2---2-4-----7---7-4--2---2-2-2-2-2-|
D|-0---------2---------------------------0---0-0-0-0-0-|
A|-----------0-----------------------------------------|
E|-----------------------------------------------------|
F#m
Vezmu tě má milá
C#m
rovnou k nám
F#m
kolem louky lesy
C#m
hejna vran,
F#m
všude samá
E
kráva samej
Bm
vůl.
F#m
Máme kino, máme
C#m
hospodu,
F#m
v obci všeobecnou
C#m
pohodu,
F#m
máme hujer,
E
žito, chléb i
Bm
sůl,
D
Když se u nás chlapi
A
poperou,
tak jenom
E
nožem, a nebo
Bm
sekerou,
V zimě tam
D
dlouhý noci
A
jsou,
a tuhej
Bm
mráz,
(A tam já to mám rád)
D
Jak jsou naše cesty
A
zavátý,
tak vezmem
E
vidle, a nebo
Bm
lopaty,
když něco
D
nejde, co na tom
A
sejde,
my máme
Bm
čas.
F#m
Chlapi někdy trochu
C#m
prudký jsou,
F#m
holky s motykama
C#m
tancujou,
F#m
s ranní rosou
E
táhnou do
Bm
polí
F#m
Nikdo se tam nikam
C#m
nežene,
F#m
máme traktory a
C#m
né že né,
F#m
až to spatříš
E
ledy
Bm
povolí
D
Když se u nás chlapi
A
poperou,
tak jenom
E
nožem, a nebo
Bm
sekerou,
V zimě tam
D
dlouhý noci
A
jsou,
a tuhej
Bm
mráz,
(A tam já to mám rád)
D
Jak jsou naše cesty
A
zavátý,
tak vezmem
E
vidle, a nebo
Bm
lopaty,
když něco
D
nejde, co na tom
A
sejde,
my máme
Bm
čas.
Sólo
e|---------------------------------------------------------------|
H|-------------------------------------------------------------3-|
G|-------------------------------------------------------------4-|
D|-----------------------------------2h4-4h5-------------------4-|
A|-x-5-5-4s5--5-5-4--5-4--5-5--4-5-2--------x-5-5-4s5--5-5-4-5-2-|
E|---------------------------------------------------------------|
F#m
Hoří les a hoří
C#m
rodnej dům,
F#m
hoří velkostatek
C#m
sousedům,
F#m
to je smůla,
E
drahá
Bm
podívej
F#m
Hasiči to stejně
C#m
přejedou,
F#m
oni si moc dobře
C#m
nevedou,
F#m
schovej sirky
E
ať je
Bm
neviděj.
D
Když se u nás chlapi
A
poperou,
tak jenom
E
nožem, a nebo
Bm
sekerou,
V zimě tam
D
dlouhý noci
A
jsou,
a tuhej
Bm
mráz,
(A tam já to mám rád)
D
Jak jsou naše cesty
A
zavátý,
tak vezmem
E
vidle, a nebo
Bm
lopaty,
když něco
D
nejde, co na tom
A
sejde,
my máme
Bm
čas.
D
Když se u nás chlapi
A
poperou,
tak jenom
E
nožem, a nebo
Bm
sekerou,
V zimě tam
D
dlouhý noci
A
jsou,
a tuhej
Bm
mráz,
(A tam já to mám rád)
D
Jak jsou naše cesty
A
zavátý,
tak vezmem
E
vidle, a nebo
Bm
lopaty,
když něco
D
nejde, co na tom
A
sejde,
my máme
Bm
čas.
Nahlásit chybu
Ověřeno uživatelem smartchords
Přidal Hlady

Nahlásit chybu v textu nebo akordech

chord