Hlavní stránka
Skladby
Zpěvníky
Registrace
Přihlásit
EN CZ
CAPO 0
CAPO 0
0

Personal Jesus

Depeche Mode


Em

e|------------------------------|
B|------------------------------|
G|------------------------------|
D|---------2---------------2----|
A|------------------------------|
E|-0--3-0----3-0--0--3--0---3-0-|


Am7
              
G

e|-----------------------------|
B|-----------------------------|
G|--------2--------------------|
D|-----------------------------|
A|-0-3-0----3-0--2-2-2--0-0-0-0|
E|---------------3-3-3-2-2-2-2-|

Lze hrát v 1. a 3. sloce místo doprovodných akordů a v každé sloce na začátku (pouze Em)
Your
Em
own personal Jesus
Someone to hear your prayers
Someone who
Am7
cares
G
Your
Em
own personal Jesus
Someone to hear your prayers
Someone who's
Am7
there
G
 (
Em
riff)
Em
Feeling unknown
And you're all alone
G
Flesh and bone
By the
D
telephone
Am7
Lift up the receiver
I'll
C
make you a be
G
liever  (
Em
riff)
Em
Take second best
Put me to the test
G
Things on your chest
You
D
need to confess
Am7
I will deliver
You
C
know i'm a for
G
giver   (riff)
F#
F
Reach out and touch faith   (
Em
riff)
F#
F
Reach out and touch faith   (
Em
riff)
Your
Em
own personal Jesus
Someone to hear your prayers
Someone who
Am7
cares
G
Your
Em
own personal Jesus
Someone to hear your prayers
Someone who's
Am7
there
G
 (
Em
riff)
Em
Feeling unknown
And you're all alone
G
Flesh and bone
By the
D
telephone
Am7
Lift up the receiver
I'll
C
make you a be
G
liever  (
Em
riff)
Am7
I will deliver
You
C
know I'm a for
G
giver  (
Em
riff)
F#
F
Reach out and touch faith   (
Em
riff)
F#
F
Reach out and touch faith   (
Em
riff)
F#
F
Reach out and touch faith   (
Em
riff)
F#
F
Reach out and touch faith
Em
Nahlásit chybu
Ověřeno uživatelem smartchords
Přidal Hlady

Nahlásit chybu v textu nebo akordech

chord