Hlavní stránka
Skladby
Zpěvníky
Registrace
Přihlásit
EN CZ
CAPO 0
CAPO 0
0

People Are Strange

The Doors


Intro hrající přes celou první sloku
e|--------|---------------|---------------|-----------------|
B|--------|---------------|---------------|-----------------|
G|--------|-------0-------|-----2-0-------|-----2---0-------|
D|--------|-----2---2-----|---2-----2-----|---2---2---------|
A|--2-0---|---2-------2-1-|-0---------2-1-|-0-----2---0h1h2-|
E|------3-|-0-------------|---------------|-----------------|

e|----------------|---------------|---------------|-------------------|
B|----------------|---------------|---------------|-------------------|
G|----------------|-------0-------|-----2-0-------|-----2-------------|
D|------1---------|-----2---2-----|---2-----2-----|---2---2---2-------|
A|----2-----2-0---|---2-------2-1-|-0---------2-1-|-0-----------0h1h2-|
E|--2-----0-----3-|-0-------------|---------------|---------0---------|
Em
People are strange
Am
when you're a
Em
stranger
Am
Faces look
Em
ugly
B
when you're a
Em
lone
Women seem wicked
Am
when you're un
Em
wanted
S
Am
treets are une
Em
ven,
B
when you're d
Em
own
When you're str
B7
ange
G
Faces come out of the rain
B
When you're strange
B
G
No one remembers your name
B
B
When you're strange
B
When you're strange
B
When you're strange
Em
People are strange
Am
when you're a
Em
stranger
Am
Faces look
Em
ugly
B
when you're a
Em
lone
Women seem wicked
Am
when you're un
Em
wanted
S
Am
treets are une
Em
ven,
B
when you're d
Em
own
E|--5b-5p3p0--------|---------------|-15v-12---------------|
B|-----------3p0----|-0-3/12-15b----|--------15-12---------|
G|---------------2b-|------------14-|-------------14b-12---|
D|------------------|---------------|-------------------14-|
A|------------------|---------------|----------------------|
E|------------------|---------------|----------------------|

e|------------3-5-----|-----------------------|------------------|
B|--------5-5-----5-3-|-5b-5b-5b-0-3h5p3p0----|------------------|
G|--12/14-------------|-----------------------|-2b-2p0---0h2-4-4-|
D|--------------------|-----------------------|--------2---------|
A|--------------------|-----------------------|------------------|
E|--------------------|-----------------------|------------------|

e|------------------|
B|--3---------------|
G|----4-4/2-0-------|
D|------------2-0-2-|
A|------------------|
When you're str
B7
ange
G
Faces come out of the rain
B
When you're strange
B
G
No one remembers your name
B
B
When you're strange
B
When you're strange
B
When you're strange
Alright, yeah
When you're str
B7
ange
G
Faces come out of the rain
B7
When you're str
B7
ange
G
No one remembers your name
B7
B
When you're strange
B
When you're strange
B
When you're s
B7
trange
Nahlásit chybu
Ověřeno uživatelem smartchords
Přidal Hlady

Nahlásit chybu v textu nebo akordech

chord