Hlavní stránka
Skladby
Zpěvníky
Registrace
Přihlásit
EN CZ
CAPO 0
CAPO 0
0

Pennyroyal Tea

Nirvana

Am
I'm on my time with
G
everyone
Am
I have very bad
G
posture
C5
Sit and
D5
drink Pennyroyal
A#5
Tea
C5
Distill the
D5
life that's inside of
A#5
me
C5
Sit and
D5
drink Pennyroyal
A#5
Tea
C5
I'm an
D5
emic royal
A#5
ty
Am
Give me a Leonard Cohen
G
afterworld
Am
So I can sigh et
G
ernally
C5
I'm so
D5
tired and I can't
A#5
sleep
C5
I'm an
D5
emic royal
A#5
ty
C5
I'm a l
D5
iar and a
A#5
thief
C5
I'm an
D5
emic royal
A#5
ty
e|-----------------------------------------------------------3----3-3-2-0----|
B|------------------------------------------------------------------------3-2|
G|--------2b(3)--2/3\2-------------2b(3)---2b(3)-----------------------------|
D|-----2----------------2-------2--------2-------2---------------------------|
A|--0------------------------0----------------------------2------------------|
E|-----------------------------------------------------3---------------------|

e|----3-3-2-0-----------|
B|------------3-2-0-----|
G|------------------2-0-|
D|----------------------|
A|----------------------|
E|----------------------|

(2x, pak základní riff)

e|-------------------------------------------------------------------------|
B|-----5----5---5-5/7-----7----7--------3----3--3-3-3-3-3-3-3-3---------5--|
G|-----5----5---5-5/7-----7----7--------3----3--3-3-3-3-3-3-3-3---------5--|
D|---5----5-----5-5/7-----7----7------3----3----3-3-3-3-3-3-3-3-------5----|
A|-3------------3-3/5---5----5------1-----------1-0-1-0-1-0-1-0-----3------|
E|-------------------------------------------------------------------------|

e|----------------------------------------|
B|--5---5-5/7-----7----7----3-3-3-3-3-3-3-|
G|--5---5-5/7-----7----7----3-3-3-3-3-3-3-|
D|5-----5-5/7-----7----7----3-3-3-3-3-3-3-|
A|------3-3/5---5----5------1-1-1-1-1-1-1-|
E|----------------------------------------|
Am
I'm on warm milk and
G
laxatives
Am
Cherry-flavored an
G
tacids
C5
Sit and
D5
drink Pennyroyal
A#5
Tea
C5
Distill the
D5
life that's inside of
A#5
me
C5
Sit and
D5
drink Pennyroyal
A#5
Tea
C5
I'm an
D5
emic royal
A#5
ty
Nahlásit chybu
Ověřeno uživatelem smartchords
Přidal Hlady

Nahlásit chybu v textu nebo akordech

chord