Hlavní stránka
Skladby
Zpěvníky
Registrace
Přihlásit
EN CZ
CAPO 0
CAPO 0
0

Ordinary World

Duran Duran

e|-12-12-12-12\11-11-11-11\9-9-9-9\7-7-7-|
b|---------------------------------------|
g|---------------------------------------|
d|---------------------------------------|
a|---------------------------------------|
e|---------------------------------------|

e|-14-14-14-14\12-12-12-12\11-11-11-11\9-9-9-9\7-7-7-7-7-5-5-5--|
b|----------------------------------------------5-5-5-5-5-5-5-5-|
g|--------------------------------------------------------------| 
d|--------------------------------------------------------------| 
a|--------------------------------------------------------------|
e|--------------------------------------------------------------|
C#m7
Came in from a rainy Thursday
E
on the ave
F#sus4
nue
F#
C#m7
Thought I heard you talking
E
softl
F#sus4
y.
F#
C#m7
I turned on the lights, the TV
E
and the radi
F#sus4
o
F#
C#m7
Still I can't escape the ghost of
E
you
F#sus4
F#
C#m
What has happened to it all?
G#m7
Crazy, some'd say
D#m7
Where is the life that I
E
recognize?
E
Gone away
B
But I won't cry for yester
F#m7
day,
There's an ordinary
Dsus2
world,
Somehow
A/C#
I have to f
E
ind.
B
And as I try to make my
F#m7
way,
to the ordinary w
Dsus2
orld,
I will
A/C#
learn to surv
F#7b5/C
ive
e|-7----6----4------------------------|
b|---0---0----0---4(h)5----4(h)5------|
g|--6-6----6----6-------6--------6----|
d|-6------6----6---------6-------6----|
a|-------------------------------4----|
e|------------------------------------|
C#m7
Passion or coincidence once
E
prompted you to
F#sus4
say
F#
C#m7
Pride will tear us both ap
E
art
F#sus4
F#
C#m7
Well now pride's gone out the window cross the roof
E
tops,
F#sus4
run away,
F#
C#m7
Left me in the vacuum of my
E
heart
F#sus4
F#
C#m
What happening to me?
G#m7
Crazy, some'd say
D#m7
Where is my friend when I
E
need you most?
E
Gone away
B
But I won't cry for yester
F#m7
day,
There's an ordinary
Dsus2
world,
Somehow
A/C#
I have to f
E
ind.
B
And as I try to make my
F#m7
way,
to the ordinary w
Dsus2
orld,
I will
A/C#
learn to surv
F#7b5/C
ive

(Intro riff)
C#m7
Papers in the roadside tell of
E
suffering and
F#sus4
greed
F#
C#m7
Fear today, forgot tom
E
orrow
F#sus4
F#
C#m7
Ooh, here besides the news of holy
E
war and holy
F#sus4
need,
F#
C#m7
Ours is just a little sorrowed
E
talk
F#sus4
F#
(Just blown away...)
B
But I won't cry for yester
F#m7
day,
There's an ordinary
Dsus2
world,
Somehow
A/C#
I have to f
E
ind.
B
And as I try to make my
F#m7
way,
to the ordinary w
Dsus2
orld,
I will
A/C#
learn to surv
F#7b5/C
ive
Every
B
world,
F#m7
is my
Dsus2
world... (I will learn to survive)
Any
A/C#
world, is my
E
world ... (I will learn to survive)
Any
B
world,
F#m7
is my
Dsus2
world...
Every
A/C#
world is my
F#7b5/C
world...
Nahlásit chybu
Ověřeno uživatelem smartchords
Přidal Hlady

Nahlásit chybu v textu nebo akordech

chord