Hlavní stránka
Skladby
Zpěvníky
Registrace
Přihlásit
EN CZ
CAPO 0
CAPO 0
0

Nothing's Gonna Hurt You Baby

Cigarettes After Sex

e|---------------------------------------------------------------------------|
B|---------------------------------------------------------------------------|
G|---------------------------------------------------------------------------|
D|---------------------------------------------------------------------------|
A|------------2--2-2--2-2-------------0--0-0--0-0----------------------------|
E|0--0-0--0-0-------------2--2-2--2-2----------------------------------------|
E
B
F#m
A

E
Whispered som
B
ething in your ear
F#m
A
E
It was a
B
perverted thing to
F#m
say
A
E
But I
B
said it anyw
F#m
ay
A
E
Made you smi
B
le and look aw
F#m
ay
A
e|--------------------------|
B|--------------------------|
G|---4-----4------2-----2---|
D|-2-----1------------------|
A|--------------4-----4-----|
E|--------------------------|

Lze hrát při refrénu
E
B
Nothing's gonna hurt you
F#m
baby
A
E
As
B
long as you're with me, you'll
F#m
be just fine
A
E
B
Nothing's gonna hurt you
F#m
baby
A
E
B
Nothing's gonna take you
F#m
from my side
A
E
When we da
B
nce in my living
F#m
room
A
E
To that sil
B
ly '90s
F#m
R&B
A
E
When we ha
B
ve a drink or th
F#m
ree
A
E
Always e
B
nds in a hazy
F#m
shower scene
A
E
B
Nothing's gonna hurt you
F#m
baby
A
E
As
B
long as you're with me, you'll
F#m
be just fine
A
E
B
Nothing's gonna hurt you
F#m
baby
A
E
B
Nothing's gonna take you
F#m
from my side
A
When we
E
laugh into the mi
B
crophone and s
F#m
ing
A
With our
E
sunglasses on, t
B
o our favorite s
F#m
ongs
A
When we're
E
laughing in the mi
B
crophone and s
F#m
inging
A
With our
E
sunglasses on, t
B
o our favorite s
F#m
ongs
A
E
B
Nothing's gonna hurt you
F#m
baby
A
E
B
Nothing's gonna take you
F#m
from my side
A
Nahlásit chybu
Ověřeno uživatelem smartchords
Přidal Hlady

Nahlásit chybu v textu nebo akordech

chord