Hlavní stránka
Skladby
Zpěvníky
Registrace
Přihlásit
EN CZ
CAPO 0
CAPO 0
0

Mr. Blue Sky

Electric Light Orchestra

F
Sun is shining in the sky
There ain't a
Em7
cloud
A7
in
Dm
sight
It's stopped
G
raining, every
Em
body's in the
A7
lane
And don't you
Bb
know,
C
it's a beautiful new
F
day, hey he
C
y
F
Running down the Avenue
See how the
Em7
sun sh
A7
ines
Dm
brightly
In the
G
city, on the s
Em
treets where once was
A7
pity
Mr
Bb
. Blue Sky is li
C
ving here
F
today, hey he
C
y
Dm
Mr. Blue Sk
C
y, please tell us
Bb
why
You had to
Am
hide away for
Gm
so long,
F
so long
Where did
Eb
we go wrong?
Bb
Dm
Mr. Blue Sk
C
y, please tell us
Bb
why
You had to
Am
hide away for
Gm
so long,
F
so long
Where did
Eb
we go wrong?
Bb
C


e|-
F
--------------------------------------
Em7
------10
A7
---------
Dm
|
B|-------10-11-10h11p10----------------------------13-----|
G|----10------------------12b14-r12-10--12b14----------10-|
D|-10-----------------------------------------------------|
A|--------------------------------------------------------|
E|--------------------------------------------------------|

e|---------------
G
--------------
Em
----------------------|
A7
B|---------------------------------------------------|
G|-12b14--12b14--12b14r12-10------10-12b14-----10-12-|
D|----------------------------/12-----------12-------|
A|---------------------------------------------------|
E|---------------------------------------------------|

e|-
Bb
-----------------------
C
--------------
F
------------------|
B|--------------------------------------10b11r10----10----|
G|-12-10-12 12b14---12b14r12 10---10-12----------12-------|
D|--------------------------------------------------------|
A|--------------------------------------------------------|
E|--------------------------------------------------------|

e|-
C
--------------|
B|-pb11r10-------|
G|---------12-10-|
D|---------------|
A|---------------|
E|---------------|
F
Hey, you with the pretty face
Em7
Welcome to the
A7
human
Dm
race
G
A celebration, Mr. Blue
Em
Sky's up there wa
A7
iting
And toda
Bb
y is the
C
day we've waited
F
for,
C
ah ah
Dm
Mr. Blue Sk
C
y, please tell us
Bb
why
You had to
Am
hide away for
Gm
so long,
F
so long
Where did
Eb
we go wrong?
Bb
Dm
Hey there,
C
Mr. Blue
We're
Bb
so pleased to
Am
be with you
Gm
Look around, see
F
what you do
Eb
Everybody smiles at
Eb
you
C
F
Mister Blue Sky!
Em7
Mister
A7
Blue
Dm
Sk
Gm
y
Em
A7
Mister
Bb
Blue S
C
ky-
F
yi
C
y!
F
Mr. Blue, you did it right
But soon comes
Em7
Mis
A7
ter N
Dm
ight
Creeping
G
over, now his
Em
hand is on your s
A7
houlder
Ne
Bb
vermind, I'll re
C
member you this
C#
I'll re
Eb
member you this
Dm
way
Dm
Mr. Blue Sk
C
y, please tell us
Bb
why
You had to
Am
hide away for
Gm
so long,
F
so long
Where did
Eb
we go wrong?
Bb
Dm
Hey there,
C
Mr. Blue (sky)
We're
Bb
so pleased to
Am
be with you (sky)
Gm
Look around, see
F
what you do (blue)
Eb
Everybody s
Bb
miles at you
Dm
C
Bb
Am
Gm
F
Eb
Bb

Dm
C
Bb
Am
Gm
F

Eb
Bb
F

Nahlásit chybu
Ověřeno uživatelem smartchords
Přidal Hlady

Nahlásit chybu v textu nebo akordech

chord