Hlavní stránka
Skladby
Zpěvníky
Registrace
Přihlásit
EN CZ
CAPO 0
CAPO 0
0

Malá dáma

Kabát

e |-----------------------|-----------------------|
h |--------0--------------|--------0--------------|
G |-----0-----0-----0-----|-----0-----0-----0-----|
D |--2-----------4-----4--|--2-----------4-----4--|
A |-----------------------|-----------------------|
E |-----------------------|-----------------------|
Em
Utrhla trávu a začla
Asus2
hrát
Ta malá dáma z předměs
C
Co umí
B
lidem z dlaní
Em
číst
Em
Tam kočky z rána mívaj
Asus2
hlad
Po noci plný neřes
C
Je pohla
B
dí a dá jim
Em
jíst
Am
Po tmě se
Asus2
toulá a ve dne
Em
spí.
A její oči vědí víc než
Am
Došly mi
Asus2
slova, já stál tam
C
jen
S touhle
B
jedinou bych
Em
zemřel
Em
S touhle bych
C
zemřel v jedinej
G
den
A jestli
B
vám to nesta
Em
čí
Kdyby tam
C
stála stovka
G
žen
Vyzvu ji
B7
k tanci a to netan
Em
čím
e |-----------------------|-----------------------|
h |--------0--------------|--------0--------------|
G |-----0-----0-----0-----|-----0-----0-----0-----|
D |--2-----------4-----4--|--2-----------4-----4--|
A |-----------------------|-----------------------|
E |-----------------------|-----------------------|
Em
Tam za tratí svý doupě
Asus2
Mince po kašnách posbí
C
A pak je
B
skládá na
Em
kolej
Em
Staví si chrám plechovej
Asus2
most
Už po něm kráčí první h
C
ost
Tak ať ho n
B
ohy nebo
Em
lej
Am
Prošla si
Asus2
peklem a kouzla
Em
zná
Přejetý mince počí
Am
A kdo ji
Asus2
spatří je zatra
C
cen
S touhle
B
jedinou bych
Em
zemřel
Em
S touhle bych
C
zemřel v jedinej
G
den
A jestli
B
vám to nesta
Em
čí
Kdyby tam
C
stála stovka
G
žen
Vyzvu ji
B7
k tanci a to netan
Em
čím
Budu si
Em
pamatovat na tu
G
chvíli
Když hrála,
C
znělo to jak Paga
B7
nini
A já už
Em
věděl, že jsem ztrace
G
nej
Zeptal se
C
za kolik s pocitem
B7
viny
Em
S touhle bych
C
zemřel v jedinej
G
den
A jestli
B
vám to nesta
Em
čí
Kdyby tam
C
stála stovka
G
žen
Vyzvu ji
B7
k tanci a to netan
Em
čím

"To je o takovým tom, jak to maj ty chlapi potom, co už jsou trošku starší, tak maj takový to, že občas potkaj někde nějakou ženskou a jsou z ní hotový, ale nakonec zjistěj, že to stejně nemá smysl, že je to všude stejný. Takovej model nějakej..." - Milan Špalek, textař.

Nahlásit chybu
Ověřeno uživatelem smartchords
Přidal Hlady

Nahlásit chybu v textu nebo akordech

chord