Hlavní stránka
Skladby
Zpěvníky
Registrace
Přihlásit
EN CZ
CAPO 0
CAPO 0
0

Lucie

Lucie


Sloky
|---------------------------------|
|---------------------------------|
|-----4-------4-------4-------4---|
|---4---4---4---4---4---4---4---4-|
|-2-------0-----------------------|
|-----------------3-------3-------|

Refrén
e|---------------------------------------------------------------------------|
B|---------------------------------------------------------------------------|
G|--------4--------------4--------------7--------------7--------------2------|
D|-----4-----4--------4-----4--------7-----7--------7-----7--------2-----2---|
A|--2--------------2--------------5--------------5--------------0------------|
E|---------------------------------------------------------------------------|

e|---------------------------------------------------------------------------|
B|---------------------------------------------------------------------------|
G|--------2--------------4--------------4------------------------------------|
D|-----2-----2--------4-----4--------4-----4---------------------------------|
A|--0------------------------------------------------------------------------|
E|-----------------3--------------2------------------------------------------|
Bm
Jdou houfy
Bm/A
žen zklama
Gmaj7
ných jak průvod
A6
Bm
každá
Bm/A
halí
Gmaj7
svoji tvář.
A6
Bm
Jdou slepě j
Bm/A
dou snad
Gmaj7
mají i důvod
A6
Bm
někdo
Bm/A
skříp a
Gmaj7
potom šláp.
A6
Bm
Jdou těla ž
Bm/A
en, když
Gmaj7
vítr jim
A6
fouká
Bm
a já
Bm/A
stojím
Gmaj7
opodál.
A6
Bm
jedný z
Bm/A
nich spad
Gmaj7
závoj kouk
A6
ám,
Bm
že snad
Bm/A
jí i
Gmaj7
měl bych znát.
A6
Bm
Víš svý
D
Lucie,
A
pár zásahů už
Gmaj7
máš.
F#
Bm
Víš svý
D
Lucie,
A
co s tímhle nadě
Gmaj7
láš
F#
.
e|-------------------------------------------------------------------------------------------|
H|-------------------------------------------------------------------------------------------|
G|------------6-6h7--7-6-7--7-6-7--7-6-7--6-----9b10r9-7--9b10r9-7---------7--9b10r9-7-9-----|
D|--s9~-9-7-9--------------------------------7---------------------s9-7-9-----------------9--|
A|-------------------------------------------------------------------------------------------|
E|-------------------------------------------------------------------------------------------|
Bm
Jdou houfy
Bm/A
žen zraně
Gmaj7
ných a prázd
A6
ných
Bm
jako d
Bm/A
ávný
Gmaj7
procesí.
A6
Bm
Já oběť
Bm/A
beránčí sám v
Gmaj7
sobě mám z nich
A6
Bm
no tak
Bm/A
co ti je
Gmaj7
Lucie.
A6
Bm
Víš svý
D
Lucie,
A
pár zásahů už
Gmaj7
máš.
F#
Bm
Víš svý
D
Lucie,
A
co s tímhle nadě
Gmaj7
láš
F#
.
Nahlásit chybu
Ověřeno uživatelem smartchords
Přidal Hlady

Nahlásit chybu v textu nebo akordech

chord