Hlavní stránka
Skladby
Zpěvníky
Registrace
Přihlásit
EN CZ
CAPO 0
CAPO 0
0

Let It Be

The Beatles

When I
C
find myself in
G
times of trouble
Am
Mother Mary c
Fmaj7
omes to
F6
me
C
Speaking words of
G
wisdom
Let it
F
be
C/E
Dm
C
And
C
in my hour of
G
darkness
She is s
Am
tanding right in
Fmaj7
front of
F6
me
C
Speaking words of
G
wisdom
Let it
F
be
C/E
Dm
C
Let it
Am
be, let it
C/G
be, let it
F
be, let it
C
be
C
Whisper words of
G
wisdom
Let it
F
be
C/E
Dm
C
And
C
when the broken-
G
hearted people
Am
Living in the
Fmaj7
world agr
F6
ee
C
There will be an
G
answer
Let it
F
be
C/E
Dm
C
For
C
though they may be
G
parted there is
Am
Still a chance that
Fmaj7
they will s
F6
ee
C
There will be an a
G
nswer
Let it
F
be
C/E
Dm
C
Let it
Am
be, let it
C/G
be, let it
F
be, let it
C
be
Yeah,
C
there will be an
G
answer
Let it
F
be
C/E
Dm
C
Let it
Am
be, let it
C/G
be, let it
C
be, let it
C
be
C
Whisper words of
G
wisdom
Let it
F
be
C/E
Dm
C
F
C/E
Dm
C
Bb
F/A
G
F
C

e|--------------------------------------------------------------|
b|--------------------------------------------------------------|
g|--------------------------------------------------------------|
d|--------------------------------------------5--7h5------------|
a|-------3--3--3/7/5--3--5--5-------3h5--5/7----------7h5--3----|
e|-----------------------------3h5------------------------------|

e|--------------------------------------------------------------|
b|-----------------------------8--------------------------------|
g|---------------------5--7/9-----9/7--5--7--5------------------|
d|------5--5-----5--7---------------------------7--5------------|
a|--/7--------7---------------------------------------7--5--3---|
e|--------------------------------------------------------------|

e|--------------------------------------------------------------|
b|------------------------------------------8--10--8------------|
g|----------------/9--7--5--7------------9------------9--7--5---|
d|---------/7--5---------------7---5--7-------------------------|
a|--/7--3-------------------------------------------------------|
e|--------------------------------------------------------------|

e|---------------8------------/12--10--8------|
b|------------------10--8-----------------10--|
g|--------5--/9------------9------------------|
d|--5--7--------------------------------------|
a|--------------------------------------------|
e|--------------------------------------------|

e|---------------------------|
b|--8-----10h8---------------|
g|-----9--------9h7--5h7--5--|
d|---------------------------|
a|---------------------------|
e|---------------------------|
Let it
Am
be, let it
C/G
be, let it
F
be, let it
C
be
C
Whisper words of
G
wisdom
Let it
F
be
C/E
Dm
C
And
C
when the night is c
G
loudy
There is still
Am
a light that
Fmaj7
shines on
F6
me
C
Shine until to
G
morrow
Let it
F
be
C/E
Dm
C
I
C
wake up to the
G
sound of music
Am
Mother Mary
Fmaj7
comes to
F6
me
S
C
peaking words of
G
wisdom
Let it
F
be
C/E
Dm
C
Let it
Am
be, let it
C/G
be, let it
F
be, let it
C
be
Yeah,
C
there will be an
G
answer
Let it
F
be
C/E
Dm
C
Let it
Am
be, let it
C/G
be, let it
F
be, let it
C
be
Yeah,
C
there will be an
G
answer
Let it
F
be
C/E
Dm
C
Let it
Am
be, let it
C/G
be, let it
C
be, let it
C
be
C
Whisper words of
G
wisdom
Let it
F
be
C/E
Dm
C
F
C/E
Dm
C
Bb
F/A
G
F
C

e|----------------------------------------------------------------|
b|----------------------------------------------------------------|
g|---5----5-------------------------------------5---7b---7br---5--|
d|---5h7--5-------------------5--5-----5---5h7--------------------|
a|------------7\5---3---3/7---------7-----------------------------|
e|----------------------------------------------------------------|

e|--------8------------------5------------------------------------|
b|---------------------------5------------------------------------|
g|--7/9------9\7---5h7---7b-----7br---5---------------------------|
d|---------------------------------------7h5---7h5----------------|
a|--------------------------------------------------7\5--3h5--3---|
e|----------------------------------------------------------------|

e|--------------------------------------------------------8--10b--|
b|---------------------------8-------8-------8--10--8h10----------|
g|--------5--5------5---7/9-----7/9-----7/9-----------------------|
d|---5h7---------7------------------------------------------------|
a|----------------------------------------------------------------|
e|----------------------------------------------------------------|

e|--10br---8h10--8----8--15b--------------------------------------|
b|------------------------------15br---13--15---15br---13h15--13--|
g|----------------------------------------------------------------|
d|----------------------------------------------------------------|
a|----------------------------------------------------------------|
e|----------------------------------------------------------------|
Nahlásit chybu
Ověřeno uživatelem smartchords
Přidal Hlady

Nahlásit chybu v textu nebo akordech

chord