Hlavní stránka
Skladby
Zpěvníky
Registrace
Přihlásit
EN CZ
CAPO 0
CAPO 0
0

Laura

Lucie

e--------------------------------------|--------------------------------------------
h-15-15b-15-13-12-12-------------------|--------------------------------------------
g--------------------14-12-14b---------|--------------------------------------------
D------------------------------7b-7-5--|-----------12-14-14b-14-12-9-9-7------------
A--------------------------------------|-(12)-14------------------------------------
E--------------------------------------|---------------------------------------3b-3-
Tento rozklad akordů hraje ve všech slokách

e-
G
---------3--------
Cadd9
-------0-------
B#5
-------3-------
A#6b5
-------0-----------
H--------3---3-----------3---3----------3---3----------3---3---------
G------0-------0-------0-------0------0-------0------0-------0-------
D--------------------------------------------------------------------
A-------------------3--------------2--------------1------------------
E--3-----------------------------------------------------------------
G
Možná je to
Cadd9
naposled,
B#5
ještě to
A#6b5
cítím
G
Pořád si
Cadd9
na dohled, a to
B#5
vim - zatím
A#6b5
svítíš
G
Teď to ne
Cadd9
poznám,
B#5
asi jsem
A#6b5
sám,
G
Došly mi
Cadd9
síly najednou a
B#5
teď zahoď tu
A#6b5
chvíli
A
Hora vys
E
oká
F
nechce jít
G
k nám a ne
A
vim
Co mě tam
F
čeká, jít
G
sám - vyhas
E
lej
G
Možná je to
Cadd9
naposled,
B#5
na cestu
A#6b5
svítím
G
Bosý nohy v
Cadd9
kamení, a to
B#5
vim - že mou bolest
A#6b5
cítíš
G
Krev padá
Cadd9
do vína,
B#5
po ruce
A#6b5
stéká,
G
Tak se teď
Cadd9
pousměj, že
B#5
chceš - na chvíli
A#6b5
spát
A
Hora vy
E
soká
F
nemohla
G
jít
A
Řeko di
F
voká,
G
nechci plout
E
sám
A
Co tě tam
E
čeká,
F
chceš na chvíli
G
spát
A
Do hloubky
F
padám
G
nemůžu
E
vstát
G
Usínáš s
Cadd9
choulená v
B#5
pavoučí
A#6b5
síti
G
To není
Cadd9
naposled - sviť
B#5
na cestu
A#6b5
dál
A
Hora vy
E
soká
F
zůstává
G
stát
A
Co mě tam
F
čeká
G
- nechci jít
E
sám
A
Řeko di
E
voká
F
ke dnu kle
G
sám
A
Zlámej mi
F
křídla - prosím
G
tě - neodlí
E
tám
e--------------------------------------|--------------------------------------------
h-15-15b-15-13-12-12-------------------|--------------------------------------------
g--------------------14-12-14b---------|--------------------------------------------
D------------------------------7b-7-5--|-----------12-14-14b-14-12-9-9-7------------
A--------------------------------------|-(12)-14------------------------------------
E--------------------------------------|---------------------------------------3b-3-
Nahlásit chybu
Ověřeno uživatelem smartchords
Přidal Hlady

Nahlásit chybu v textu nebo akordech

chord