Hlavní stránka
Skladby
Zpěvníky
Registrace
Přihlásit
EN CZ
CAPO 0
CAPO 0
0

Jasná zpráva

Olympic

|----7-------------7-7-7-------7-8-10-12p12p-10-8-7----|
|-----8------7-8-10-----10-8-10--------------------8-8-|
|------7~-7-9------------------------------------------|
|------------------------------------------------------|
|------------------------------------------------------|
|------------------------------------------------------|
G
Skončili jsme jasná zpráva
Em
proč o tebe
C
zakopávám
D
dál
Am
projít bytem
C
já abych se
G
bál
G
Dík tobě se vidím zvenčí
Em
připadám si
C
starší menší
D
sám
Am
kam se kouknu
C
kousek tebe m
G
ám
Em
Pěnu s vůni
Bm
jablečnou
Em
vyvanulý
Bm
sprej
Em
telefon, co
G
ustřihlas mu
D
šňůru
Em
Knížku krásně
Bm
zbytečnou
Em
co má lživý
Bm
děj
Em
píše se v ní
G
jak se lítá
D
vzhůru,
lítá
Am
vzhůru, ve dvou
Dm
vzhůru
G
Odešlas mi před úsvitem
Em
mám strach bloudit
C
vlastním bytem
D
sám
Am
kam se kouknu
C
kousek tebe
G
mám
|----7-------------7-7-7-------7-8-10-12p12p-10-8-7----|
|-----8------7-8-10-----10-8-10--------------------8-8-|
|------7~-7-9------------------------------------------|
|------------------------------------------------------|
|------------------------------------------------------|
|------------------------------------------------------|
Em
Pěnu s vůni
Bm
jablečnou
Em
vyvanulý
Bm
sprej
Em
telefon, co
G
ustřihlas mu
D
šňůru
Em
Knížku krásně
Bm
zbytečnou
Em
co má lživý
Bm
děj
Em
píše se v ní
G
jak se lítá
D
vzhůru,
lítá
Am
vzhůru, ve dvou
Dm
vzhůru
G
Skončili jsme jasná zpráva
Em
není komu z
C
okna mávat
D
víc
Am
jasná zpráva,
C
rub co nemá
G
líc
|----7-------------7-7-7-------7-8-10-12p12p-10-8-7----|
|-----8------7-8-10-----10-8-10--------------------8-8-|
|------7~-7-9------------------------------------------|
|------------------------------------------------------|
|------------------------------------------------------|
|------------------------------------------------------|
Nahlásit chybu
Ověřeno uživatelem smartchords
Přidal Hlady

Nahlásit chybu v textu nebo akordech

chord