Hlavní stránka
Skladby
Zpěvníky
Registrace
Přihlásit
EN CZ
CAPO 0
CAPO 0
0

In Bloom

Nirvana

Bb
G
F
G#

Bb
G
F
G#

Bb
F#
D#
B
A

Bb
F#
D#
B
A

Bb
Sell the
F#
kids for
D#
food
B
A
Bb
Weather
F#
changes
D#
moods
B
A
Bb
Spring is
F#
here ag
D#
ain
B
A
Bb
Reprod
F#
uctive
D#
glands,
B
hee
A
ey
Bb
He's the
Gm
one
Who likes
Bb
all our pretty
Gm
songs
And he
Bb
likes to sing
Gm
along
And he
Bb
likes to shoot his
Gm
gun
But he
C
don't know not what it
D#
means
C
Don't know what it
D#
means, when I say:
Bb
He's the
Gm
one
Who likes
Bb
all our pretty
Gm
songs
And he
Bb
likes to sing
Gm
along
And he
Bb
likes to shoot his
Gm
gun
But he
C
don't know what it
D#
means
C
Don't know what it
D#
means, when I say
Y
Bb
eah
G
F
G#
Bb
G
F
G#

Bb
We can
F#
have some
D#
more
B
A
Bb
Nature
F#
is a
D#
whore
B
A
Bb
Bruises
F#
on the
D#
fruit
B
A
Bb
Tender
F#
age in
D#
bloom,
B
hee
A
ey
Bb
He's the
Gm
one
Who likes
Bb
all our pretty
Gm
songs
And he
Bb
likes to sing
Gm
along
And he
Bb
likes to shoot his
Gm
gun
But he
C
don't know not what it
D#
means
C
Don't know what it
D#
means, when I say:
Bb
He's the
Gm
one
Who likes
Bb
all our pretty
Gm
songs
And he
Bb
likes to sing
Gm
along
And he
Bb
likes to shoot his
Gm
gun
But he
C
don't know what it
D#
means
C
Don't know what it
D#
means, when I say
Y
Bb
eah
G
F
G#
Bb
G
F
G#

e|--12b---9b-------------------------------------------------------|
B|--11b---8b-------------------------------------------------------|
G|-------------6---8-6-8-8b--6-------6-8-8-8b-6-8---6-8-8-6-8-8----|
D|------------------------------6--8----------------------------0--|
A|-----------------------------------------------------------------|
E|-----------------------------------------------------------------|

e|--14b---------------------------------------------|
B|--13b----------------------------------------16b--|
G|----------12----12-13-12-13--15--13--15b-15b-15b--|
D|-------15----15-----------------------------------|
A|--------------------------------------------------|
E|--------------------------------------------------|

e|--------------------------------|
B|------8-8-----8---7---6---5-----|
G|---6--------6---6---5---4---3---|
D|--------------------------------|
A|--------------------------------|
E|--------------------------------|
Bb
He's the
Gm
one
Who likes
Bb
all our pretty
Gm
songs
And he
Bb
likes to sing
Gm
along
And he
Bb
likes to shoot his
Gm
gun
But he
C
don't know not what it
D#
means
C
Don't know what it
D#
means, when I say:
Bb
He's the
Gm
one
Who likes
Bb
all our pretty
Gm
songs
And he
Bb
likes to sing
Gm
along
And he
Bb
likes to shoot his
Gm
gun
But he
C
don't know what it
D#
means
C
Don't know what it
D#
means
C
Don't know what it
D#
means
C
Don't know what it
D#
means, when I say
Y
Bb
eah
G
F
G#
Bb
G
F
G#

Bb

Nahlásit chybu
Ověřeno uživatelem smartchords
Přidal Hlady

Nahlásit chybu v textu nebo akordech

chord