Hlavní stránka
Skladby
Zpěvníky
Registrace
Přihlásit
EN CZ
CAPO 0
CAPO 0
0

I'm A Believer

The Monkees

G
I thought love was only
D
true in
G
fairy tales
G
Meant for someone
D
else but not for
G
me.
C
Love was out to
G
get me
C
That's the way it
G
seemed.
C
Disappointment
G
haunted all my
D
dreams.
Then I saw her
G
face,
C
G

now
C
I'm a be
G
liever
C
G
C
Not a
G
trace
C
G

of
C
doubt in my
G
mind.
C
G
C
I'm in
G
love,
C
ooh
I'm a be
G
liever!
I couldn't
F
leave her if I
D
tried.
e|--------------------------------------|
B|-----------3---------3-------3~-------|x2
G|--3-h--5-----3-h-5-----3-h--5---------|
D|--------------------------------------|
A|--------------------------------------|
E|--------------------------------------|
I
G
thought love was
D
more or less a
G
given thing,
G
Seems the more I
D
gave the less I
G
got.
C
What's the use in
G
tryin'?
C
All you get is
G
pain.
C
When I needed
G
sunshine I got
D
rain.
Then I saw her
G
face,
C
G

now
C
I'm a be
G
liever
C
G
C
Not a
G
trace
C
G

of
C
doubt in my
G
mind.
C
G
C
I'm in
G
love,
C
ooh
I'm a be
G
liever!
I couldn't
F
leave her if I
D
tried.
e|-------------------------------------------------------|--------------------|
B|-------------------------------------------------------|--------------------|
G|-------------------------------------------------------|--------------------|x2
D|---5--5~--3~--------------3--4--5--5--3--------3--4--5-|-5--3--------3--4---|
A|-------------5--5--5~--5-----------------5--5----------|-------5--5---------|
E|-------------------------------------------------------|--------------------|


e|---------------------------------------------------------------------------|
B|---------------------------------------------------------------------------|
G|---------------------------------------------------------------------------|
D|--5-3----------------------------------------------------------------------|
A|------5--------------------------------------------------------------------|
E|---------------------------------------------------------------------------|
C
Love was out to
G
get me
C
That's the way it
G
seemed.
C
Disappointment
G
haunted all my
D
dreams.
Then I saw her
G
face,
C
G

now
C
I'm a be
G
liever
C
G
C
Not a
G
trace
C
G

of
C
doubt in my
G
mind.
C
G
C
I'm in
G
love,
C
ooh
I'm a be
G
liever!
I couldn't
F
leave her if I
D
tried.
Yes I saw her
G
face,
C
G

now
C
I'm a be
G
liever
C
G
C
Not a
G
trace
C
G

of
C
doubt in my
G
mind.
C
G
Said
C
I'm a be
G
liever
C
G
C
I'm a be
G
liever
C
G
Said
C
I'm a be
G
liever (
C
I'm a be
G
liever)
Said
C
I'm a be
G
liever (
C
I'm a be
G
liever)
Nahlásit chybu
Ověřeno uživatelem smartchords
Přidal Hlady

Nahlásit chybu v textu nebo akordech

chord