Hlavní stránka
Skladby
Zpěvníky
Registrace
Přihlásit
EN CZ
CAPO 0
CAPO 0
0

I'll Be There For You (Friends theme)

The Rembrandts

e|--0---------------------------|
B|--2--22-0---------------------|
G|--2------2-0-0-2-2/4-2--------|
D|--2---------------------------|
A|--0---------------------------|
E|--x---------------------------|
A
So no one told you life was gonna be this way
G
A
Your job's a joke, you're broke, your love life's D.O.
C#m
A.
G
It's like you're
Bm
always stuck in
A
second gear
When it
G
hasn't been your
D
day, your week, your mo
E
nth, or even your year, but
A
I'll be
D
there for
E
you
(When the rain starts to pour)
A
I'll be
D
there for
E
you
(Like I've been there before)
A
I'll be
D
there for
E
you
('Cause you're there for me
G
too)
e|--------------------------|
B|--0--0---0--1--0-----0----|
G|-------2----------2-------|
D|--------------------------|
A|--------------------------|
E|--------------------------|
A
You're still in bed at ten and work began at
G
eight
A
You've burned your breakfast, so far things are going
C#m
great
G
Your mother
Bm
warned you there'd be
A
days like these
But she
G
didn't tell you
D
when the world has br
E
ought you down to your knees that
A
I'll be
D
there for
E
you
(When the rain starts to pour)
A
I'll be
D
there for
E
you
(Like I've been there before)
A
I'll be
D
there for
E
you
('Cause you're there for me
G
too)
e|--------------------------|
B|--0--0---0--1--0-----0----|
G|-------2----------2-------|
D|--------------------------|
A|--------------------------|
E|--------------------------|
D
No one could ever know me
No one could ever see me
F#m
Seems you're the only one who knows what it's like to be me
Bm
Someone to face the day with,
D/A
make it through all the rest with
G
Someone I'll a
Gmaj/F#
lways laugh with
E
Even at my w
D
orst, I'm b
E
est with
F#m
you, yeah!
G
It's like you're a
Bm
lways stuck in
A
second gear
When it
G
hasn't been your
D
day, your week, your m
E
onth, or even your year
A
I'll be
D
there for
E
you
(When the rain starts to pour)
A
I'll be
D
there for
E
you
(Like I've been there before)
A
I'll be
D
there for
E
you
('Cause you're there for me
G
too)

A
I'll be
D
there for
E
you
(When the rain starts to pour)
A
I'll be
D
there for
E
you
(Like I've been there before)
A
I'll be
D
there for
E
you
('Cause you're there for me
G
too)
A

Píseň byla po napsání původně nabídnuta R.E.M. Ti ji odmítli a tak byla nahrána samotnými Rembrandts.

Nahlásit chybu
Ověřeno uživatelem smartchords
Přidal Hlady

Nahlásit chybu v textu nebo akordech

chord