Hlavní stránka
Skladby
Zpěvníky
Registrace
Přihlásit
EN CZ
CAPO 0
CAPO 0
0

Here Comes The Sun

The Beatles


e|---
D
2-----0--2-----2--0---
G
---------0---
A7
-------------------0----|
B|---3--3--------3--------3--0--3--(0)--3--0--2--0--2--3--(2)---|
G|---2-----------------------0-------------0--------------------|
D|---0-----------------------0-------------2--------------------|
A|---------------------------2-------------0--------------------|
E|---------------------------3----------------------------------|

e|---
D
---2-----0--2-----2--0-----
G
---2--0------
A7
---|
B|---3-----3--------3--------3--0--------3---2--|
G|---2--------------------------0------------0--|
D|---0--------------------------0------------2--|
A|------------------------------2------------0--|
E|------------------------------3---------------|
D
Here comes the sun do do do do
G
Here comes the
E7
sun and I say
D
It' s allright
e|----------0--------0--------0--------0---------------|
B|-------3---------3--------3--------3-----3--2--0-----|
G|--2/4----------2--------0--------2----------------2--|
D|-----------------------------------------------------|
A|-----------------------------------------------------|
E|-----------------------------------------------------|

e|-
D
---2-----0--2---
A7
----------------0---|
B|-3-----3---------0--2--0--2--3--(2)--|
G|-2---------------0-------------------|
D|-0---------------2-------------------|
A|-----------------0-------------------|
E|-------------------------------------|
D
Little darling
It' s been a
G
long cold lonely
A7
winter
D
Little darling
It feels like
G
years since it´s been
A7
here
D
Here comes the sun do do do do
G
Here comes the
E7
sun and I say
D
It' s allright
e|----------0--------0--------0--------0---------------|
B|-------3---------3--------3--------3-----3--2--0-----|
G|--2/4----------2--------0--------2----------------2--|
D|-----------------------------------------------------|
A|-----------------------------------------------------|
E|-----------------------------------------------------|

e|-
D
---2-----0--2---
A7
----------------0---|
B|-3-----3---------0--2--0--2--3--(2)--|
G|-2---------------0-------------------|
D|-0---------------2-------------------|
A|-----------------0-------------------|
E|-------------------------------------|
D
Little darling
The smiles re
G
turing to the
A7
faces
D
Little darling
It seems like
G
years since it´s been
A7
here
D
Here comes the sun do do do do
G
Here comes the
E7
sun and I say
D
It' s allright
e|----------0--------0--------0--------0---------------|
B|-------3---------3--------3--------3-----3--2--0-----|
G|--2/4----------2--------0--------2----------------2--|
D|-----------------------------------------------------|
A|-----------------------------------------------------|
E|-----------------------------------------------------|

e|-
D
---2-----0--2---
A7
----------------0---|
B|-3-----3---------0--2--0--2--3--(2)--|
G|-2---------------0-------------------|
D|-0---------------2-------------------|
A|-----------------0-------------------|
E|-------------------------------------|
E|--------------------------------------------2-----|
B|-----------------1--------------------------3--2--|
G|--------------2-----------0--------0--------2--0--|
D|--------2--3-----------2--------0-----------0--2--|
A|--0--4--------------3--------2-----------2-----0--|
E|--------------------------------------3-----------|
F
Sun
C
sun
G/B
sun
G7
here it
D
comes
A7
F
Sun
C
sun
G/B
sun
G7
here it
D
comes
A7
F
Sun
C
sun
G/B
sun
G7
here it
D
comes
A7
F
Sun
C
sun
G/B
sun
G7
here it
D
comes
A7
F
Sun
C
sun
G/B
sun
G7
here it
D
comes
A7
A7
A7sus4

D
Little darling
I feel that
G
ice is slowly
A7
melting
D
Little darling
it seems like
G
years since it's been
A7
clear
D
Here comes the sun do do do do
G
Here comes the
E7
sun and I say
D
It' s all right
D
Here comes the sun do do do do
G
Here comes the
E7
sun and I say
D
It' s allright
e|----------0--------0--------0--------0---------------|
B|-------3---------3--------3--------3-----3--2--0-----|
G|--2/4----------2--------0--------2----------------2--|
D|-----------------------------------------------------|
A|-----------------------------------------------------|
E|-----------------------------------------------------|

e|----2-----0--2-------------------0---|
B|-3-----3---------0--2--0--2--3--(2)--|
G|-2---------------0-------------------|
D|-0---------------2-------------------|
A|-----------------0-------------------|
E|-------------------------------------|
D
It's allright
Nahlásit chybu
Ověřeno uživatelem smartchords
Přidal Hlady

Nahlásit chybu v textu nebo akordech

chord