Hlavní stránka
Skladby
Zpěvníky
Registrace
Přihlásit
EN CZ
CAPO 2
CAPO 2
0
CAPO 2

On Melancholy Hill

Gorillaz


e|-
C
--3---3---3---
G
--3---3---3-
Am
--3---3---3---
F
--3---
G
--3---3---
F
--3---
G
--3---3---|
B|-1---1---1---1-0---0---0---1---1---1---1-1---1-0---0---0-1---1-0---0---0-|
G|-------------------------------------------------------------------------|
D|-------------------------------------------------------------------------|
A|-------------------------------------------------------------------------|
E|-------------------------------------------------------------------------|
C
Up on melancholy hill
There's a plastic
G
tree
Are you here with
Am
me?
Just
F
looking out on the
G
day of another
F
dream
G
Well,
C
you can't get what you want but you can get
G
me
So let's set out to
Am
sea, love
'Cause
F
you are my medi
G
cine
When you're close to
F
me
G
When you're close to
F
me
(Intro)
C
G
Am
F
G
F
G

So
C
call in the submarine
'Round the world we'll
G
go
Does anybody
Am
know her?
If we're
F
looking out on the
G
day of another
F
dream
G
(Intro)
C
G
Am

If
F
you can't get what you
G
want then you come with
F
me
G
C
Up on melancholy hill
G
 
Sits a mana
Am
tee
Just
F
looking out for the
G
day
When you're close to
F
me
G
When you're close to me
(Intro)
C
G
Am
F
G
F
G

When you're close to me
(Intro 2x)
C
G
Am
F
G
F
G

Nahlásit chybu
Ověřeno uživatelem smartchords
Přidal Hlady

Nahlásit chybu v textu nebo akordech

chord