Hlavní stránka
Skladby
Zpěvníky
Registrace
Přihlásit
EN CZ
CAPO 0
CAPO 0
0

Dole v dole

Kabát

Drop D ladění

e|---------------------------|
B|---------------------------|
G|---------------------------|
D|--3s2--0--3--2--0---0---0--|
A|--3s2--0--3--2--0---0---0--|
D|--3s2--0--3--2--0---0---0--|
A
Připravit, pozor, jedem!
A
Doutnáky zapálit!
A
Prosíme zacpat uši a teď už jenom Raz, Dva, Tři!
A
Zabereme Hej Hou, taháme kameny
A
a ty co nejdou, rozdrtíme pěstí.
A
Od rána do noci a paže znavený
A
ta hrubá síla, galoše plný mouru mám.
A
Pochodem vchod,
B
páry těžkejch bot
D
Funguje to
F#
líp než namazanej stroj
A
Dokola je tma,
B
nějakej permoník
D
tu z díry civí
F#
jako Němec na orloj
A
Herodes tango tančí za zvuku kovadlin,
A
Rarachy v norách škádlí, ocasem povadlym.
A
Zabereme Hej Hou, jsme na to stavěný
A
futrujem uhlí a pojídáme brikety.
A
Co se do nás vejdou a nohy ztuhlý
A
ta hrubá síla, galoše plný mouru mám.
A
Pochodem vchod,
B
páry těžkejch bot
D
Funguje to
F#
líp než namazanej stroj
A
Dokola je tma,
B
nějakej permoník
D
Tak ty mě serou!
F#


e|-----------------s5--4-----------------------------|
B|-------7s9~-6s5--s6--5-----------------------------|
G|-----7---------------------------------------------|
D|-6h7--------------------3--3p2p0---4-3~~--3hh4p3---|
A|---------------------------------2---------------4-|
D|---------------------------------------------------|

A
Tak ako sa vám páči
A
tím novým páčidlem?
A
Bardzo dobře sa páči,
A
tak ještě chvíli a rozeberem celou zem.
A
Pochodem vchod,
B
páry těžkejch bot
D
Funguje to
F#
líp než namazanej stroj
A
Dokola je tma,
B
nějakej permoník
D
tu z díry civí
F#
jako Němec na orloj
A
Pochodem vchod,
B
páry těžkejch bot
D
Funguje to
F#
líp než namazanej stroj
A
Dokola je tma,
B
nějakej permoník
D
tu z díry civí
F#
jako Němec na orloj
Nahlásit chybu
Ověřeno uživatelem smartchords
Přidal Hlady

Nahlásit chybu v textu nebo akordech

chord