Hlavní stránka
Skladby
Zpěvníky
Registrace
Přihlásit
EN CZ
CAPO 0
CAPO 0
0

Daniela

Lucie


F#
G#
C#
G#

F#
G#
C#
G#


e--------------------------------------------------------------------------------------------
H--------------------------------------------------------------------------------------------
G--------------------------6--6x-x-6--6x--xxxxxx--6--6x-x-6--6x--xxxxxx----------------------
D--3h4-4-x-x-3-x-1h3-------6--6x-x-6--6x--xxxxxx--6--6x-x-6--6x--xxxxxx---6--6x-xxxxxxxxxxx--
A--------------------x-4-x-4--4x-x-4--4x--xxxxxx--4--4x-x-4--4x--xxxxxx---6--6x-xxxxxxxxxxx--
E-------------------------------------------------------------------------4--4x-xxxxxxxxxxx--

e------------------------------
H--------5--------2------------
G------6-6--------3-3-3-3-3----
D----6---6------4-4-4-4-4-4-4--
A--4-----4----4---4---------4--
E-----------2------------------
C#m
Letím jsem letadlo vítr poly
F#
kám
C#m
Přikládám do ohně uhlí a
F#
mour
C#m
Plameny vdechuji v žáru
F#
počítá
Oběti
G#m
nevinny inkvizit
G#
or
G#m
C#m
Víš, dávno jsem ti řek‘, že v noci pod
F#
platanem
G#m
Zapálím ohně potmě nezůstanem
C#m
Víš, plamen zahřeje tvé bílé
F#
zkřehlé tělo
Potom
B
nasytíš mne zplna
G#m
Danielo
E
Křídla a plameny divoká
C#m
vřetena
B
Odhal své prameny studánko
G#m
čistá
E
Hořící perutě rytíře
C#m
bez jména
B
Za bouře otevři lodi mé přístav
F#
G#
C#
G#

F#
G#
C#
G#

C#m
Letím jsem letadlo v bouři p
F#
rocitám
C#m
Dobývám zahrady plodů a
F#
her
C#m
Opojným nektarem ústa
F#
zalykám
Křídla mám
G#m
z vosku a holubích
G#
per
G#m
C#m
Víš, dávno jsem ti řek‘, že vzývám
F#
hromobití
G#m
Tvou holubici potmě do ruk chytím
C#m
Platanový kmen už tiskne
F#
tvoje čelo
Tak
B
napoj mne má křehká
G#m
Danielo
E
Křídla a plameny divoká
C#m
vřetena
B
Odhal své prameny studánko
G#m
čistá
E
Hořící perutě rytíře
C#m
bez jména
B
Za bouře otevři lodi mé přístav
F#
G#
C#
G#

C#m
Víš, dávno jsem ti řek‘, že vzývám
F#
hromobití
G#m
Tvou holubici potmě do ruk chytím
C#m
Platanový kmen už tiskne
F#
tvoje čelo
Tak
B
napoj mne má křehká
G#m
Danielo
E
Křídla a plameny divoká
C#m
vřetena
B
Odhal své prameny studánko
G#m
čistá
E
Hořící perutě rytíře
C#m
bez jména
B
Za bouře otevři lodi mé přístav
e------------------------------------------------------------
H------------------------------------------------------------
G--3h4~~~~~~~~-4-4~~-3h4~~~~--3b4------3b4r3------3b4r3------
D---------------------------------4-6---------4-6-------4-6--
A------------------------------------------------------------
E------------------------------------------------------------
Nahlásit chybu
Ověřeno uživatelem smartchords
Přidal Hlady

Nahlásit chybu v textu nebo akordech

chord