Hlavní stránka
Skladby
Zpěvníky
Registrace
Přihlásit
EN CZ
CAPO 0
CAPO 0
0

Comfortably Numb

Pink Floyd

Bm

Bm
Hello?
Is there anybody
A
in there?
Just nod if you can
G
hear me
D/F#
.
Em
Is there
Bm
anyone home?
Bm
Come on now
I hear you're
A
feeling down.
Well
G
I can ease
D/F#
your
Em
pain
Get you
Bm
on your feet again.
Bm
Relax.
I'll need some infor
A
mation first.
G
Just the ba
D/F#
sic
Em
facts.
Can you
Bm
show me where it hurts?
D
There is no pain you are re
A
ceding
D
A distant ship smoke on the ho
A
rizon.
G/B
C
You are only coming through in
G
waves.
Your
C
lips move but I can't hear what you're
G
saying.
When
D
I was a child I had a
A
fever
My
D
hands felt just like two ba
A
lloons.
G/B
C
Now I've got that feeling once a
G
gain
I can't explain you
C
would not understand
This is not how I
G
am.
A
I
G/B
C
   have be
G
come comfortably
D
numb.
e|---14∼∼∼∼∼-----12-14>15>14------------------------------------------------|
B|------------------------------15>17∼∼∼∼∼∼∼∼>15--15-14--------------------|
G|---------------------------------------------------------14----------------|
D|-------------------------------------------------------------14\12∼∼∼∼---|
A|---------------------------------------------------------------------------|
E|---------------------------------------------------------------------------|

e|--14>12--14>(15)>14----------------------------------------------------------|
B|-----------------------15>17---------15--14----------------------------------|
G|---------------------------------------------14------------------/12∼∼∼∼---|
D|-------------------------------------------------14\12--11--9--7-------------|
A|-----------------------------------------------------------------------------|
E|-----------------------------------------------------------------------------|

e|---------------------------------------------------------------|
B|---------------------------------------------------------------|
G|---11--------------11\9---9\7∼∼∼∼----9>7------7---9---11>12---|
D|----------14--12----------------------------9------------------|
A|---------------------------------------------------------------|
E|---------------------------------------------------------------|

e|---15-14-12---------------------------------------------------|
B|------------15-12---------------------------------------------|
G|------------------12------------------------------------------|
D|---------------------12∼∼∼∼∼∼∼--10\9∼∼∼∼∼∼---10\9\7∼∼∼∼----|
A|--------------------------------------------------------------|
E|--------------------------------------------------------------|

e|-----------------------------------------------------------|
B|-----------------------------------------------------------|
G|-11>(12)∼∼∼∼∼∼∼--9>(11)===(11)==>9>7----------------------|
D|---------------------------------------7/9\7∼∼∼∼∼∼∼∼∼\---|
A|-----------------------------------------------------------|
E|-----------------------------------------------------------|
A
I
G/B
C
   have be
G
come comfortably
D
numb.
Bm
O.K.
Just a little
A
pinprick.
There'll be no more,
G
ah
D/F#
!
Em
But you may
Bm
feel a little sick.
Bm
Can you stand up?
I do believe it's w
A
orking, good.
That'll
G
keep you going
D/F#
through the
Em
show
Come
Bm
on it's time to go.
D
There is no pain you are re
A
ceding
D
A distant ship, smoke on the ho
A
rizon.
G/B
C
You are only coming through in
G
waves.
Your
C
lips move but I can't hear what you're
G
saying.
When
D
I was a child
I caught a
A
fleeting glimpse
D
Out of the corner of my
A
eye.
G/B
I
C
turned to look but it was
G
gone
I cannot put my finger
C
on it now
The child is grown,
The
G
dream is gone.
A
I
G/B
 
C
  have be
G
come comfortably
D
numb.
e|---------------------------------------------------------------|
B|---------------------------------------------------------------|
G|--7--9--9>(11)∼∼∼∼--9>(11)>9>7---7--9--9--7-------7∼∼∼∼∼∼---|
D|---------------------------------9-------------9--9------------|
A|---------------------------------------------------------------|
E|---------------------------------------------------------------|

e|-------------------------------------------10----------------------------------|
B|--------10------10--12--12>(15)>12>10--12--------------------------------------|
G|---/11------11---------------------------------------7--9--9>(10)>9>7----------|
D|-----------------------------------------------------------------------9∼∼∼∼∼-|
A|-------------------------------------------------------------------------------|
E|-------------------------------------------------------------------------------|

e|---------------------------------------------------------------------------|
B|----10>7-------7-----------------------------------------------------------|
G|-----------9-------9---7-------------------------------7-------------------|
D|--------------------------9∼∼∼∼∼∼∼∼∼--------7---7--9-----9>7---9∼∼∼∼∼----|
A|-----------------------------------------/9--------------------------------|
E|---------------------------------------------------------------------------|

e|--9--9>(10)----7-------7---------------------------|
B|-------------------10-----10>(12)∼∼-----10>7-------|
G|-----------------------------------------------9---|
D|---------------------------------------------------|
A|---------------------------------------------------|
E|---------------------------------------------------|

e|-------7--------------------------------------------------------|
B|--7--7---10>7---------------------------------------------------|
G|--------------9>(11)>9>7---9-7----------------------------------|
D|-------------------------9-----9-7------------------------------|
A|-----------------------------------9-8-7-5---5∼∼∼∼∼∼∼∼∼∼∼∼----|
E|-------------------------------------------7--------------------|

e|--------------------------7-------------------------------------------------|
B|------------------------7---10>7--------------------------------------------|
G|--7-7-7∼∼∼∼∼---9>(11)----------9>(11)>9>7---9-7---------------------------|
D|--------------------------------------------9-----9>7-----------------------|
A|------------------------------------------------------9\7-5-7>5---5--7-7/9--|
E|----------------------------------------------------------------7-----------|

e|----------------------------7----------------------------7------------------|
B|--------------------------7---10--------7--------------7---10>7-------------|
G|-------------7---7-9>(11)--------9>(11)---7--9--9>(11)----------9>(11)>9>7--|
D|--7-7-7--9>7---9------------------------------------------------------------|
A|----------------------------------------------------------------------------|
E|----------------------------------------------------------------------------|

e|-----------------------------------------------------------------------------|
B|---------------------------7--------------7-7-7------------------7-7-7-------|
G|----9-7--------------------7--------------7-7-7------------------7-7-7-------|
D|--9-----9-7----------------7--9∼∼∼∼∼∼----7-7-7--"9"∼∼∼∼∼∼∼∼∼---7-7-7--9∼∼-|
A|------------9-8-7-5---5>0----------------------------------------------------|
E|--------------------7--------------------------------------------------------|

e|---------------------------------------------7------------------------|
B|--7---------------------------------------------10>7--10>(12)====>10--|
G|--7----9>(11)>9>7-----7--9--9>(11)∼∼∼∼∼∼∼----------------------------|
D|-----7-------------9--------------------------------------------------|
A|----------------------------------------------------------------------|
E|----------------------------------------------------------------------|

e|----------7-------------------------------------------------------|
B|--------7---10>7--------------------------------------------------|
G|-9>(11)----------9>(11)>9>7-9>7---7---------------------------7---|
D|--------------------------------9---9>7-9>7---7------------9--7---|
A|--------------------------------------------9---9-8-7-------------|
E|------------------------------------------------------10-7--------|

e|-----------------------------------------------------------------------|
B|----------7-----7>(8)>7--------------------------7-----------------7---|
G|--------7-7-----7>(8)>7-----------------7>9>7----7-----------------7---|
D|--9-7-9---7-----7>(8)>7-7∼∼∼∼-7>9------------9---9>7-----7-9>7>9-----|
A|--------------------------------------------------------9--------------|
E|-----------------------------------------------------------------------|

e|------------------------------------7-----17-17-17>(19)∼∼--17-19-21-21>(22)∼∼-|
B|--------7---7---7--7------7---7--7--7------------------------------------------|
G|--9>7---7---7---7--7----7-7---7--7--7------------------------------------------|
D|------9-----7-----------------------7------------------------------------------|
A|-------------------------------------------------------------------------------|
E|-------------------------------------------------------------------------------|

e|--21>(22)∼∼-21-21>(22)>21--21>(22)-21>(22)-21>(22)>21--19>21>19-19-19\---|
B|--------------------------------------------------------------------------|
G|--------------------------------------------------------------------------|
D|--------------------------------------------------------------------------|
A|--------------------------------------------------------------------------|
E|--------------------------------------------------------------------------|

e|------------------------------------------------------------------------------|
B|--17-17-17--17>(19)>17>15----17-17-17∼∼∼∼∼---15--17-17>(18)>17>15∼∼∼---------|
G|--------------------------16-----------------------------------------16-16-16-|
D|------------------------------------------------------------------------------|
A|------------------------------------------------------------------------------|
E|------------------------------------------------------------------------------|

e|----------------------------10---------10----12-12>(13)-10-12-------12--|
B|--------------------10>(12)----10>(12)----10------------------12-12-----|
G|--14-16∼∼∼--------------------------------------------------------------|
D|-----------14-12--------------------------------------------------------|
A|-----------------14-----------------------------------------------------|
E|------------------------------------------------------------------------|

e|-------------------------------------------------------------|
B|-12>(15)>12--12-10---------------------------------------7---|
G|-------------------9>(11)>9>0--9>7---7-9>7---------------7---|
D|-----------------------------------9-------9-7---------------|
A|-----------------------------------------------9-8-7-5-------|
E|-------------------------------------------------------------|

e|-----------------------------------7--7--7--7---7---7---7--7-7--7---7--7--|
B|---7--7--7--7--7-----7---7---7--7--7--7--7--7---7---7---7--7-7--7---7--7--|
G|---7--7--7--7--7-----7---7---7--7-----------------------------------------|
D|-------------------9---9---9----------------------------------------------|
A|--------------------------------------------------------------------------|
E|--------------------------------------------------------------------------|

e|---7-----------------------------------------------|
B|------10-------------------------------------------|
G|----------9>(11)-9--7------------------------------|
D|----------------------9-9-9-7----7-7>9-9>7-9∼∼∼∼--|
A|---------------------------------------------------|
E|---------------------------------------------------|
Nahlásit chybu
Ověřeno uživatelem smartchords
Přidal Hlady

Nahlásit chybu v textu nebo akordech

chord