Hlavní stránka
Skladby
Zpěvníky
Registrace
Přihlásit
EN CZ
CAPO 0
CAPO 0
0

California Dreamin

The Mamas & the Papas

E|---------------------0-1-0---------------------0-------|
B|------1---3-1-0----1-------3-1------3-1-0------3-------|
G|----2---2--------2----------------2-------2-0--1-------|
D|--2-----------------------------2--------------2-------|
A|-----------------------------------------------2-------|
E|-----------------------------------------------0-------|
All the leaves are
Am
bro
G
wn
F
and the sk
G
y is gr
Esus4
e
E
y
I
F
've been for a
C
wal
E
k
Am
on a
F
winter's
Esus4
day
E
I'd be safe and
Am
warm
G
i
F
f I wa
G
s in L.
Esus4
A.
E
Ca
Am
lifor
G
nia dr
F
eaming on
G
such a winter's
Esus4
day
E
Stepped into a
Am
chur
G
ch
F
I passed a
G
long the
Esus4
way
E
F
Well, I got down on my
C
knee
E
s
Am
and I p
F
retend to p
Esus4
ray
E
You know the preacher, like the co
Am
ld
G
,
F
he knows I'm g
G
onna
Esus4
stay
E
C
Am
alifor
G
nia d
F
reaming on
G
such a winter's
Esus4
day
E

e|-
Am
0-0-0-0-0-0---0--0--0--0--0--0-----|
B|-1-1-1-1-1-1---0-h1--3--1-p0--1-----|
G|-2-2-2-2-2-2---2--2--2--2--2--2-----|
D|-2-2-2-2-2-2---2--2--2--2--2--2-----|
A|-0-0-0-0-0-0---0--0--0--0--0--0-----|
E|-0-0-0-0-0-0---0--0--0--0--0--0-----|
Am
G
E7
Am
F
E7sus4

Am
G
Am
G
E7sus4
E7

Am
G
F
G
E7sus4

All the leaves are
Am
brow
G
n
F
and the sk
G
y is gr
Esus4
ey
E
I
F
've been for a
C
walk
E
on
Am
a winter's
F
day
Esus4
E
If I didn't tell
Am
her
G
I co
F
uld l
G
eave tod
Esus4
ay
E
C
Am
alifor
G
nia d
F
reaming on
G
such a winter's
Esus4
day
E
C
Am
alifor
G
nia d
F
reaming on
G
such a winter's
Esus4
day
E
C
Am
alifor
G
nia d
F
reaming on
G
such a winter's
Esus4
day
E
Nahlásit chybu
Ověřeno uživatelem smartchords
Přidal Hlady

Nahlásit chybu v textu nebo akordech

chord