Hlavní stránka
Skladby
Zpěvníky
Registrace
Přihlásit
EN CZ
CAPO 0
CAPO 0
0

The Cigarette Duet

Princess Chelsea


(3x)
e|--------------------|---------------|
B|--4-4--4-4-6-6--6-6-|---------------|
G|-5--------7---------|-4-4--4-4--4-4-|
D|--------------------|---------------|
A|--------------------|---------------|
E|--------------------|---------------|

(3x)
e|--------------------|---------------|
B|--4-4--4-4-6-6--6-6-|---------------|
G|-5--------7---------|-4-4--4-4--4-4-|
D|--------------------|---------------|
A|--------------------|---------------|
E|--------------------|---------------|
It's
Cm
just a ciga
G
rette and it
G#
cannot be that
Eb
bad
Cm
Honey don't you
G
love me and you k
G#
now it makes me
Eb
sad?
It's
Cm
just a cigar
G
ette like you
G#
always used to
Eb
do
Cm
I was different t
G
hen, I don't
G#
need them to be
Eb
cool
e|----8-----------8------8--|
B|-8-----8-----8-----8----8-|
G|----------5-----------5---|
D|--------------------------|
A|--------------------------|
E|--------------------------|
It's
Cm
just a cigar
G
ette and it
G#
harms your pretty l
Eb
ungs
Well
Cm
it's only twice a w
G
eek so there's
G#
not much of a
Eb
chance
It's
Cm
just a cigar
G
ette it'll
G#
soon be only
Eb
ten
Cm
Honey can't you
G
trust me when I
G#
want to stop I
Eb
can
e|---------------------------------------------|
B|-8/13--13/8-8--8/18-16-15-13--13-15-13-11-13-|
G|---------------------------------------------|
D|---------------------------------------------|
A|---------------------------------------------|
E|---------------------------------------------|
It's
Cm
just a cigar
G
ette and it's
G#
just a Marlboro
Eb
Light
Cm
Maybe
G
but is it
G#
worth it if we
Eb
fight?
It's
Cm
just a cigar
G
ette that I
G#
got from Jamie-
Eb
Lee
She's
Cm
gonna get a
G
smack and I'm
G#
gonna give you
Eb
three
It's
Cm
just a cigar
G
ette and I
G#
only did it
Eb
once
(It's just a cigarette it will soon be only ten)
it's
Cm
only twice a
G
week so there's
G#
not much of a
Eb
chance
(They'll do make you sick, so there's not much of a chance)
It's
Cm
just a cigar
G
ette and I'm
G#
sorry that I
Eb
did it
(It's just a cigarette you'll be sorry that you did it)
Cm
Honey can't you
G
trust me when I
G#
want to stop I
Eb
can
e|---------------------------------------------|
B|-8/13--13/8-8--8/18-16-15-13--13-15-13-11-13-|
G|---------------------------------------------|
D|---------------------------------------------|
A|---------------------------------------------|
E|---------------------------------------------|
E|-------------------------------|----------------11-----------------|
B|-8-9-12b-11-9-8--6-8-----6-8---|-8-9-12b-11-9-8----6-8-----6-8-----|
G|---------------------5-8-----8-|-----------------------5-8-----8---|
D|-------------------------------|-----------------------------------|
A|-------------------------------|-----------------------------------|
E|-------------------------------|-----------------------------------|
Cm
Lala
G
lala
G#
lal
Eb
...
Nahlásit chybu
Ověřeno uživatelem smartchords
Přidal Hlady

Nahlásit chybu v textu nebo akordech

chord