Hlavní stránka
Skladby
Zpěvníky
Registrace
Přihlásit
EN CZ
CAPO 0
CAPO 0
0

Bon Soir Mademoiselle Paris

Olympic

Em
Mám v
B7
kapse jeden
Em
frank,
jsem
D
nejbohatší z
G
bank nad Sei
B7
nou,
Em
mám
B7
víc než krupi
Em
ér
a
D
stíny Sacre-
G
Coeur nade
B7
mnou.
C
Láska je
D
úděl
G
tvůj,
Am
pánbůh tě
B7
opat
Em
ruj,
bonso
C
ir, mademoi
D
selle Pa
Em
ris,
bonso
C
ir, mademoi
D
selle Pa
Em
ris.
Em
Znám
B7
bulvár Saint Mi
Em
chelle,
D
tam jsem včera
G
šel s Marie-
B7
Claire,
Em
vím, jak
B7
zní z úst krásných
Em
žen
D
slůvka car je
G
t'aime, oh mon
B7
chére
C
Láska je
D
úděl
G
tvůj,
Am
pánbůh tě
B7
opat
Em
ruj,
bonso
C
ir, mademoi
D
selle Pa
Em
ris,
bonso
C
ir, mademoi
D
selle Pa
Em
ris.
E|---------------------------------/--------------------------------/
H|--12~~~~------------12-----------/----12--13--12--13---15-12~~~~--/
G|--------14--12--14------12~~~~---/--------------------------------/
D|---------------------------------/--------------------------------/
A|---------------------------------/--------------------------------/
E|---------------------------------/--------------------------------/

E|------------------------/
H|------------------------/
G|--14--12--11~~~~--------/
D|------------------------/
A|------------------------/
E|------------------------/

E|----------12---------------------/-----------------------------/
H|--13---15----15----13--12~~~~----/-------12--13--12------------/
G|---------------------------------/---14------------14--12~~~~--/
D|---------------------------------/-----------------------------/
A|---------------------------------/-----------------------------/
E|---------------------------------/-----------------------------/

E|-------------------------------------------------------/
H|-------------------------------------------------------/
G|-------11--12------14--12--11--------------------------/
D|--14----------------------------12--14~~~~-------------/
A|-------------------------------------------------------/
E|-------------------------------------------------------/
Nahlásit chybu
Ověřeno uživatelem smartchords
Přidal Hlady

Nahlásit chybu v textu nebo akordech

chord