Hlavní stránka
Skladby
Zpěvníky
Registrace
Přihlásit
EN CZ
CAPO 0
CAPO 0
0

And I Love Her

The Beatles


e|-----------
F#m
-----------
E6
--------------------
F#m
------------------|
B|------------------------------------------------------------|
G|------------------------------------------------------------|
D|------------------------------------------------------------|
A|-----7--6--4---------7--6--4---------7--6--4----------------|
E|--7---------------7---------------7-------------------------|
F#m
I give her
C#m
all my love
F#m
That's all I
C#m
do
F#m
And if you
C#m
saw my love
A
You'd love her
B7
too
I
E
love her

e|--
F#m
--------9--------------9--
C#m
----------9-----------9----------|
B|------10-----10------10-----10-----9-----9-----9-----9-------|
G|--11-------------11-------------9-----------9----------------|
D|-------------------------------------------------------------|
A|-------------------------------------------------------------|
E|-------------------------------------------------------------|
She gives me every thing

e|---
F#m
-------9--------------9------
C#m
------9-----------9----------|
B|------10-----10------10-----10-----9-----9-----9-----9-------|
G|--11-------------11-------------9-----------9----------------|
D|-------------------------------------------------------------|
A|-------------------------------------------------------------|
E|-------------------------------------------------------------|
And tender ly

e|--
F#m
--------9--------------9-
C#m
-----------9-----------9----------|
B|------10-----10------10-----10-----9-----9-----9-----9-------|
G|--11-------------11-------------9-----------9----------------|
D|-------------------------------------------------------------|
A|-------------------------------------------------------------|
E|-------------------------------------------------------------|
The kiss my lover brings

e|-
A
-------9-------------9----
B7
----------11---------------------|
B|----10-----10-----10-----10------10------10-----------------|
G|-9-------------9-------------11-----------------------------|
D|------------------------------------------------------------|
A|------------------------------------------------------------|
E|------------------------------------------------------------|
She brings to me

e|----------11------
E6
------9-----------9-----------9------------|
B|------10------10-----9-----9-----9-----9-----9-----9---------|
G|--11--------------9-----------9-----------9-----------9------|
D|-------------------------------------------------------------|
A|-------------------------------------------------------------|
E|-------------------------------------------------------------|
And I love her
C#m
A love like
B
ours
C#m
Could never
G#m
die
C#m
As long as
G#m
I
Have you
B7
near me
F#m
Bright are the
C#m
stars that shine
F#m
Dark is the
C#m
sky
F#m
I know this
C#m
love of mine
A
Will never
B7
die
And I
E
love her

e|--
Gm
-----
Dm
---------
Gm
------
Dm
----------
Gm
------
Dm
---------------------------------|
B|-----------------------------------------------------------------------|
G|-----------9--7/10---------------9--9\7-----------------9--7/10--------|
D|--5--7--8---------------5--7--8----------------5--7--8-----------------|
A|-----------------------------------------------------------------------|
E|-----------------------------------------------------------------------|

e|--
Bb
-------
C7
-------------
F
--------------------
Gm
-----------------------------|
B|-----------------------------------------------------------------------|
G|--10--7----------------------------------------------------------------|
D|---------8--7--7\5--------------/7-------------------------------------|
A|-----------------------5--3--5--------3--------------------------------|
E|------------------------------------------5--3--1--1/3-----------------|
Gm
Bright are the
Dm
stars that shine
Gm
Dark is the
Dm
sky
Gm
I know this
Dm
love of mine
Bb
Will never
C7
die
And I
F
love her, ooh

e|------------
Gm
-------------
F
-------------
Gm
-----------
D
---------------|
B|----------------------------------------------------------------|
G|----------------------------------------------------------------|
D|----------------------------------------------------------------|
A|------8--7--5---------8--7--5---------8--7--5--------8--7--5----|
E|---8---------------8---------------8--------------8-------------|
Nahlásit chybu
Ověřeno uživatelem smartchords
Přidal Hlady

Nahlásit chybu v textu nebo akordech

chord