Hlavní stránka
Skladby
Zpěvníky
Registrace
Přihlásit
EN CZ
CAPO 0
CAPO 0
0

A Little Less Conversation

Elvis Presley

E
A
E
A

A
E7
little less conver
A7
sation, a little more
E7
action please
A7
E7
All this aggra
A7
vation ain't satis
E7
factioning me
A7
A
E
little more bite and a
G
little less bark
A
A
little less fight and a
D
little more spark
Close your
E
mouth and open up your
B
heart and baby satis
E7
fy me
A7
Satis
E7
fy me baby
A7
E7
Baby close your eyes and
A7
listen to the music
E7
Drifting through a summer
A7
breeze
E7
It's a groovy night and I can
A7
show you how to use it
E7
Come along with me and put your
A7
mind at ease
A
E7
little less conver
A7
sation, a little more
E7
action please
A7
E7
All this aggra
A7
vation ain't satis
E7
factioning me
A7
A
E
little more bite and a
G
little less bark
A
E
little less fight and a
D
little more spark
Close your
E
mouth and open up your
B
heart and baby satis
E7
fy me
A7
Satis
E7
fy me baby
A7
E
Come on baby I'm tired of talking
e|----------------|----------------|
B|----------------|----------------|
G|----------------|----------------|
D|--------0-4---2-|--0---------0---|
A|----0-2---------|------1---2-----|
E|0---------------|----------------|
E
Grab your coat and let's start walking
e|----------------|----------------|
B|----------------|----------------|
G|----------------|----------------|
D|--------0-4---2-|--0---------0---|
A|----0-2---------|------1---2-----|
E|0---------------|----------------|
E
Come on, come on
G
Come on, come on
A
Come on, come on
B
Don't procrastinate, don't articulate
B
Girl it's getting late, gettin' upset waitin'
B7
around
A
E7
little less conver
A7
sation, a little more
E7
action please
A7
E7
All this aggra
A7
vation ain't satis
E7
factioning me
A7
A
E
little more bite and a
G
little less bark
A
E
little less fight and a
D
little more spark
Close your
E
mouth and open up your
B
heart and baby satis
E7
fy me
A7
Satis
E7
fy me baby
A7
Satis
E7
fy me baby
A7
Satis
E7
fy me baby
A7
...
Nahlásit chybu
Ověřeno uživatelem smartchords
Přidal Hlady

Nahlásit chybu v textu nebo akordech

chord