Hlavní stránka
Skladby
Zpěvníky
Registrace
Přihlásit
EN CZ
CAPO 0
CAPO 0
0

A Horse With No Name

America

On the
Em
first part of the
D6/9
journey
I was l
Em
ooking at all the l
D6/9
ife
There were
Em
plants and birds and
D6/9
rocks and things
There was
Em
sand and hills and
D6/9
rings
The
Em
first thing I met was a
D6/9
fly with a buzz
And the
Em
sky with no
D6/9
clouds
The
Em
heat was hot and the
D6/9
ground was dry
But the
Em
air was full of
D6/9
sound
I've
Em9
been through the desert on a
Dmaj9
horse with no name
It felt
Em9
good to be out of the
Dmaj9
rain
In the
Em9
desert you can
Dmaj9
remember your name
Cause there
Em9
ain't no one for to
Dmaj9
give you no pain
Em9
La, la  
Dmaj9
la la lala la lala
Em9
la la la
Dmaj9

After
Em
two days in the d
D6/9
esert sun
My
Em
skin began to turn
D6/9
red
After
Em
three days in the
D6/9
desert fun
I was
Em
looking at a river
D6/9
bed
And the
Em
story it told of a
D6/9
river that flowed
Made me
Em
sad to think it was
D6/9
dead
You see I've
Em9
been through the desert on a
Dmaj9
horse with no name
It felt
Em9
good to be out of the
Dmaj9
rain
In the
Em9
desert you can
Dmaj9
remember your name
Cause there
Em9
ain't no one for to
Dmaj9
give you no pain
Em9
La, la  
Dmaj9
la la lala la lala
Em9
la la la
Dmaj9

e|-0-0--2-2h3--3-3/5--5-5\2--2-2h3--3-3p0--|
B|-----------------------------------------|
G|-----------------------------------------|
D|-----------------------------------------|
A|-----------------------------------------|
E|-----------------------------------------|

e|-0-0h2--2-2h3--3-3/5--5-5/7--7-7--5-7--|
B|---------------------------------------|
G|---------------------------------------|
D|---------------------------------------|
A|---------------------------------------|
E|---------------------------------------|
e|-12-12-12-12-12-12-12-12-12-12-12-12-12-|
B|----------------------------------------|
G|----------------------------------------|
D|----------------------------------------|
A|----------------------------------------|
E|----------------------------------------|

ve stejnou chvíli druhá kytara:

e|-10-9-7-9-7--5-7-5--3-5-3--2-3-2--0-2-0---0--------------0--|
B|----------------------------------------3---3--2-3-2-----0--|
G|-----------------------------------------------------2---0--|
D|------------------------------------------------------------|
A|------------------------------------------------------------|
E|------------------------------------------------------------|
After
Em
nine days I let the
D6/9
horse run free
Cause the
Em
desert had turned to
D6/9
sea
There were
Em
plants and birds and
D6/9
rocks and things
There was
Em
sand and hills and
D6/9
rings
The
Em
ocean is a desert with it's
D6/9
life underground
And a
Em
perfect disguise
D6/9
above
Under the
Em
cities lies a
D6/9
heart made of ground
But the
Em
humans will give no
D6/9
love
You see I've
Em9
been through the desert on a
Dmaj9
horse with no name
It felt
Em9
good to be out of the
Dmaj9
rain
In the
Em9
desert you can
Dmaj9
remember your name
Cause there
Em9
ain't no one for to
Dmaj9
give you no pain
Em9
La, la  
Dmaj9
la la lala la lala
Em9
la la la
Dmaj9

Nahlásit chybu
Ověřeno uživatelem smartchords
Přidal Hlady

Nahlásit chybu v textu nebo akordech

chord