Hlavní stránka
Skladby
Zpěvníky
Registrace
Přihlásit
EN CZ
CAPO 0
CAPO 0
0

A Girl Like You

Edwyn Collins

Cm
Fm
Gm

Cm
Fm
Cm

Cm
Fm
Gm

Cm
Fm
Cm

I've
Cm
never known a girl like
Fm
you be
Gm
fore
Cm
Fm
Cm
Now
Cm
just like in a song from
Fm
days of y
Gm
ore
Cm
Fm
Cm
Cm
Here you come a-knockin', knockin'
Fm
on my
Gm
door
Cm
Fm
Cm
And I've
Cm
never met a girl like
Fm
you be
Gm
fore
Cm
Fm
Cm
|-------------------6-3--|-------------------------|
|----4-6/8\6-4-----4-----|----4-6/8\6-4-----3------|
|--5-----------5-5-------|--5-----------5-5---3-5--|
|------------------------|-------------------------|
|------------------------|-------------------------|
|------------------------|-------------------------|
You
Cm
give me just a taste, so
Fm
I want
Gm
more
Cm
Fm
Cm
Now
Cm
my hands are bleeding and my
Fm
knees are
Gm
raw
Cm
Fm
Cm
'Cause
Cm
now you've got me crawlin', crawlin'
Fm
on the
Gm
floor
Cm
Fm
Cm
And I've
Cm
never known a girl like
Fm
you be
Gm
fore
Cm
Fm
Cm
|-------------------6-3--|-------------------------|
|----4-6/8\6-4-----4-----|----4-6/8\6-4-----3------|
|--5-----------5-5-------|--5-----------5-5---3-5--|
|------------------------|-------------------------|
|------------------------|-------------------------|
|------------------------|-------------------------|
You've
Cm
made me acknowledge the
Gm
devil in me
I
Cm
hope to God I'm talkin' metap
Gm
horically
Cm
Hope that I'm talkin' alle
Gm
gorically
Cm
Know that I'm talkin' about the
Gm
way I feel
And I've
Cm
never known a girl like
Fm
you be
Gm
fore
Cm
Fm
Cm
Cm
Never, never,
Fm
never,
Gm
never
Cm
Never known a girl like y
Fm
ou be
Gm
fore
Cm
Fm
Cm
e|------6-8--|--10-11-13--|---------------|---------------------------|
B|----4------|------------|----4-6-4-6^?--|--6-4---4---------3-----4--|
G|--5--------|------------|--5------------|------5---5-3---3---3-5----|
D|-----------|------------|---------------|--------------5------------|
A|-----------|------------|---------------|---------------------------|
E|-----------|------------|---------------|---------------------------|
This
Cm
old town's changed so
Gm
much
Don't
Cm
feel that I be
Gm
long
Too
Cm
many protest singers, not enough
Gm
protest songs
Cm
And now you've come along, yes, you've
Gm
come along
And I
Cm
never met a girl like
Fm
you be
Gm
fore
Cm
Fm
Cm
Cm
Yes all
Fm
right
Gm
Yes all
Cm
right
(26x)
Nahlásit chybu
Ověřeno uživatelem smartchords
Přidal Hlady

Nahlásit chybu v textu nebo akordech

chord