Hlavní stránka
Skladby
Zpěvníky
Registrace
Přihlásit
EN CZ
CAPO 0
CAPO 0
0

A Deathless Song

Parkway Drive

F#m
F#m
F#m
F#m
F#m
F#m
F#m
F#m

D
D


e|---
F#m
------------------------
D
------------
E
--------------|
B|-------------2---------------------------------------|
G|---------1-2---4~~~~-2-1-4-2~~~~-1---2-1~~~~---------|
D|---4-2-4---------------------------4---------4-2~~---|
A|-----------------------------------------------------|
E|-----------------------------------------------------|

e|---
F#m
------------------------
D
------------
E
--------------|
B|-------------2-------------5~~~~---------------------|
G|---------1-2---4~~~~-2-1-4-------1---2-1~~~~-2-1-2---|
D|---4-2-4---------------------------4-----------------|
A|-----------------------------------------------------|
E|-----------------------------------------------------| (celé 2x)
F#m
Let me beat in your
D
heart   
E
F#m
Be your drum of
D
war and
E
love
F#m
Let me hide in your
D
arms   
E
F#m
Be my cage, my
D
key, my
E
lock
F#m
Let our bones col
D
lide   
E
F#m
Until the light falls like
D
anvils
E
from our eyes
F#m
When our dreams ig
D
nite   
E
F#m
Disappear in their
D
fire
E
D
E
F#m
Be my deathless song
D
E
B~~~
Fill my aching lungs
F#m
   
D
BREATHE YOUR LIFE 
E
INTO ME!
F#m
            
D
         
E
Because I
F#m
drown in your shadow
Like
D
salt in the
E
rain
If my
F#m
fear is tomorrow
Your
D
memory’s the
E
fight in my
F#m
veins
F#m
(...veins)   
D
      
E
      
F#m
               
D
E

F#m
                 
D
      
E
      
F#m
               
D
E

F#m
Let our bones col
D
lide   
E
F#m
Until the light falls like
D
anvils
E
from our eyes
F#m
When our dreams ig
D
nite   
E
F#m
Disappear in their
D
fire
E
F#m
Let me beat in your
D
heart   
E
F#m
Be your drum of
D
war and
E
love
F#m
Let me hide in your
D
arms   
E
F#m
Be my cage, my
D
key, my
E
lock
D
E
F#m
Be my open sky
D
E
B~~~
Fill these wild eyes
F#m
   
D
BREATHE YOUR LIFE 
E
INTO ME!
F#m
            
D
         
E
Because I
F#m
drown in your shadow
Like
D
salt in the
E
rain
If my
F#m
fear is tomorrow
Your
D
memory’s the
E
fight in my
F#m
veins
F#m
(...veins)   
D
      
E
F#m

Your
D
memory’s the
E
fight in my
F#m
veins
F#m
(...veins)   
D
      
E
      
F#m
               
D
E

Because I
F#m~~~
drown in your shadow
Like
D~~~
salt in the
E~~~
rain
If my
F#m~~~
fear is tomorrow
Your
D~~~
memory’s the
E~~~
fight in my
F#m~~~
veins.

"A Deathless Song" je jedenáctá skladba z alba "IRE" australské metalcore skupiny Parkway Drive. Uvedená skladba je jednou z jejich nejjemnějších písní a na deluxe albu kapela umístila i její upravenou verzi s hostující zpěvačkou Jennou McDougall (Tonight Alive). Mimochodem, ačkoli zde uvádím skladbu hratelnou v klasickém E ladění originální verze je v Drop B. :)

Nahlásit chybu
Ověřeno uživatelem smartchords
Přidal Andrew4

Nahlásit chybu v textu nebo akordech

chord