Hlavní stránka
Skladby
Zpěvníky
Registrace
Přihlásit
EN CZ
CAPO 0
CAPO 0
0

'74–'75

The Connells

e|----------0--3------0-0-0-|
B|----------1--0------1-0-1-|
G|----------0--0------2-2-2-|
D|--2-0-----2--0--2-2-2-2-2-|
A|-0----3-0-3--2--0-0-0-0-0-|
E|-------------3------------|  (2x)
F
Got no
C
reason for
F
coming to me
and the
C
rain
G
running
F
down
there's no
C
reason
Am
F
and the
C
same voice
F
coming to me
like it's
C
all
G
slowing
F
down
and be
C
lieve me
G
I was the
Am
one who let you
C
know,
I was your
G
sorry ever
F
after
seventy-
Am
four, seventy-
C
five
G
F
It's not
C
easy,
F
nothing to say
'cause it's
C
al
G
ready
F
said
It's never
C
easy
Am
When I
F
look on your
C
eyes
then I
F
find that I'll do
C
fine
When I
F
look on your
C
eyes
then I'll do
G
better
I was the
Am
one who let you
C
know,
I was your
G
sorry ever
F
after
seventy-
Am
four, seventy-
C
five
G
Givin me
Am
more and I'll de
C
fy,
cause you're
G
really only
F
after
seventy-
Am
four, seventy-
C
five
G
e|----------0--3------0-0-0-|
B|----------1--0------1-0-1-|
G|----------0--0------2-2-2-|
D|--2-0-----2--0--2-2-2-2-2-|
A|-0----3-0-3--2--0-0-0-0-0-|
E|-------------3------------|  (2x)


e|--------------3/5-3---------0---/3-------------------------------|
B|3/5-3---3/5-3-----------5-------|----0-------3-------------------|
G|----5-------5-------------------|--------5-------4---5-4/5-5/4---|
D|--------------------------------|--------------------------------|
A|--------------------------------|--------------------------------|
E|--------------------------------|--------------------------------|

e|--------------------------------|--------------------------------|
B|--------------------------------|-------------------------------3/
G|0---------0h2h4/5-----4-----2-0-h2-------------------------------|
D|--------------------------------|--------------------------------|
A|--------------------------------|--------------------------------|
E|--------------------------------|--------------------------------|

e|--------------3/5-3------------3/5-3---3/5-3---------------------|
B|-/5-3---3/5-3-----------5-----5-|----5-------5---------5/6---5---|
G|----5-------5-------------------|----------------5---------------|
D|--------------------------------|--------------------------------|
A|--------------------------------|--------------------------------|
E|--------------------------------|--------------------------------|

e|--------------------------------|
B|--------------------------------|
G|--------------------------------|
D|------------------------5---4---|
A|--------------------------------|
E|--------------------------------|

F
Got no
C
reason for
F
coming to me
and the
C
rain
G
running
F
down
there's no
C
reason
Am
When I
F
look on your
C
eyes
then I
F
find that I'll do
C
fine
When I
F
look on your
C
eyes
then I'll do
G
better
I was the
Am
one who let you
C
know,
I was your
G
sorry ever
F
after
seventy-
Am
four, seventy-
C
five
G
Givin me
Am
more and I'll de
C
fy,
cause you're
G
really only
F
after
seventy-
Am
four, seventy-
C
five
G
I was the
Am
one who let you
C
know,
I was your
G
sorry ever
F
after
seventy-
Am
four, seventy-
C
five
G
Givin me
Am
more and I'll de
C
fy,
cause you're
G
really only
F
after
seventy-
Am
four, seventy-
C
five
G
Am
C
G
F
… seventy-
Am
four, seventy-
C
five..
G
Am
C
G
F
… seventy-
Am
four, seventy-
C
five..
G
Am
C
G
F
… seventy-
Am
four, seventy-
C
five..
G
Nahlásit chybu
Ověřeno uživatelem smartchords
Přidal Hlady

Nahlásit chybu v textu nebo akordech

chord