Hlavní stránka
Skladby
Zpěvníky
Registrace
Přihlásit
EN CZ
CAPO 0
CAPO 0
0

21 Guns

Green Day

Dm
A#
F
C

Dm
Do you
A#
know what's worth
F
fighting
C
for,
Dm
when it's
A#
not worth
F
dying
C
for?
Dm
Does it
A#
take your
F
breath a
C
way,
and you
A#
feel yourself suffo
C
cating?
Dm
Does the
A#
pain weigh
F
out the
C
pride,
Dm
and you
A#
look for a
F
place to
C
hide?
Dm
Did some
A#
one break your
F
heart in
C
side?
you're in
A#
ruins
C
F
One,
C/E
twenty-one
Dm
guns
C
lay down your
A#
arms
F
give up the
C
fight
F
one,
C/E
twenty-one
Dm
guns
C
throw up your
A#
arms
F
into the s
C
ky,
you and
A#
I
F
C
Dm
When you're
A#
at the
F
end of the
C
road
Dm
and you
A#
lost all
F
sense of cont
C
rol
Dm
and your
A#
thoughts have
F
taken their
C
toll
when your
A#
mind breaks the spirit of
C
your soul
Dm
your
A#
faith walks on
F
broken
C
glass
Dm
and the
A#
hangover
F
doesn't
C
pass
Dm
nothing's
A#
ever
F
built to
C
last
you're in
A#
ruins
C
F
One,
C/E
twenty-one
Dm
guns
C
lay down your
A#
arms
F
give up the
C
fight
F
one,
C/E
twenty-one
Dm
guns
C
throw up your
A#
arms
F
into the s
C
ky,
you and
A#
I
F
C
Dm
Did you
A#
try to
F
live on your
C
own
Dm
when you
A#
burned down the
F
house and
A
home?
Dm
Did you
A#
stand too
F
close to the
A
fire,
Like a
A#
liar looking for for
C
giveness from a stone?
E----------------------------------------------------------------------|
B-----------10~-------8~--10-------------------------------------------|
G-----------------------------------10~------10-------9--10--7---------|
D-------10--------10----------------------10-----10--------------------|
A--/8------------------------------------------------------------------|
E----------------------------------------------------------------------|

E----------------------------------------------------------|
B----------------------------------------------------------|
G-----7-----------------------9~--9~--9~-10---12~----------|
D--8-----8-----10--7---------------------------------------|
A---------------------8------------------------------------|
E----------------------------------------------------------|

E----------------------------------------------------------------------|
B-----------10~-------8~---10------------------------------------------|
G-----------------------------------10~------10-------9--10--7---------|
D-------10--------10----------------------10-----10--------------------|
A--/8------------------------------------------------------------------|
E----------------------------------------------------------------------|

E--------------------------------------------(12~)---------|
B----------------------------------------------------------|
G-----7-----------------------9~--9~--9~-10---12~----------|
D--8-----8-----10--7---------------------------------------|
A---------------------8------------------------------------|
E----------------------------------------------------------|

E---------------------------------------------------|
B---3---------1-------------------------------------|
G-----3---------2------------(/)9~--9~--9~--9~\-----|
D-------3---------3---------------------------------|
A---------------------------------------------------|
E---------------------------------------------------
Dm
When it's
A#
time to
F
live and let
C
die
Dm
and you
A#
can't get a
F
nother
C
try
Dm
Something
A#
inside this
F
heart has
C
died
You're in
A#
ruins
F
One,
C/E
twenty-one
Dm
guns
C
lay down your
A#
arms
F
give up the
C
fight
F
one,
C/E
twenty-one
Dm
guns
C
throw up your
A#
arms
F
into the s
C
ky,
you and
A#
I
F
C
F
One,
C/E
twenty-one
Dm
guns
C
lay down your
A#
arms
F
give up the
C
fight
F
one,
C/E
twenty-one
Dm
guns
C
throw up your
A#
arms
F
into the s
C
ky,
you and
A#
I
F
C
Nahlásit chybu
Ověřeno uživatelem smartchords
Přidal Hlady

Nahlásit chybu v textu nebo akordech

chord