Home
Songs
Songbooks
Sign Up
Sign In
EN CZ
CAPO 0
CAPO 0
0

Californication

Red Hot Chili Peppers


e]--
Am
-------------------
F
------------------------|
B]--------0--1---------------------------------|
G]--------------0-0h2p0-----------0--2---------|
D]-----2--------------------------------0------| X6
A]--0-------------------------3-----------3----|
E]-------------------------1-------------------|
Am
Psychic spies from China try to
F
steal your mind's elation
And
Am
little girls from Sweden dream of
F
silver screen quotation
And
C
if you want these
G
kind of dreams, it's
F
Californi
Dm
cation
(Intro riff)
It's the
Am
edge of the world and all of
F
western civilization
The
Am
sun may rise in the east, at least it's
F
settled in a final location
It's u
C
nderstood that
G
Hollywood sells
F
Californi
Dm
cation
Am
Pay your surgeon very well to
F
break the spell of aging
Am
Celebrity skin, is this your chin, or
F
is that war you're waging?
Am
First born uni
F
corn
Am
Hardcore, soft p
F
orn
C
Dream of Cali
G
fornic
Dm
ation
Am
C
Dream of Cali
G
fornic
Dm
ation
(Intro riff)
Am
Marry me girl, be my fairy to the world
Be my
F
very own constellation
A
Am
teenage bride with the baby inside
Getting
F
high on information
And
C
buy me a star on the
G
boulevard, it's
F
Californic
Dm
ation
(Intro riff)
Am
Space may be the final frontier
But it's
F
made in a Hollywood basement
And
Am
Cobain can you hear the spheres
Singing
F
songs off Station to Station?
And
C
Alderaan's not
G
far away, it's
F
Californic
Dm
ation
Am
Born and raised by those who praise
F
control of population
Well,
Am
everybody's been there, and
F
I don't mean on vacation
Am
First born unic
F
orn
Am
Hardcore, soft
F
porn
C
Dream of Cali
G
fornic
Dm
ation
Am
C
Dream of Cali
G
fornic
Dm
ation
Am
C
Dream of Cali
G
fornic
Dm
ation
Am
C
Dream of Cali
G
fornic
Dm
ation
e]-------9---------------------9---------------------------|
B]--10--------------------10-------------------------------|
G]-----------11^(11)--------------11^(11)~~--11-11-11-11p9-|
D]---------------------------------------------------------|
A]---------------------------------------------------------|
E]---------------------------------------------------------|

e]---------------------------------------9---12---14~~~~~--|
B]----------------------------------10~~-------------------|
G]---------------9--11^(11)-9------------------------------|
D]-11-11----9-11--------------11~~-------------------------|
A]---------------------------------------------------------|
E]---------------------------------------------------------|

e]------9---12---14^---14~~~~~--17---16---14-------14------|
B]-10~~----------------------------------------17-------17-|
G]---------------------------------------------------------|
D]---------------------------------------------------------|
A]---------------------------------------------------------|
E]---------------------------------------------------------|

e]-------------------------------------------14^(14)-12----|
B]-14---17---14---14----14----14---17---14-\------------14-|
G]----------------16^---16^---16^--------------------------|
D]---------------------------------------------------------|
A]---------------------------------------------------------|
E]---------------------------------------------------------|

e]-12~~----------------12----10----9--------|
B]------14---12---10--------------------10--|
G]------------------------------------------|
D]------------------------------------------|
A]------------------------------------------|
E]------------------------------------------|
D
Am
estruction leads to a very rough road
But it
F
also breeds creation
And
Am
earthquakes are to a girl's guitar
That's
F
just another good vibration
And
C
tidal waves couldn't
G
save the world from
F
Californic
Dm
ation
Am
Pay your surgeon very well to
F
break the spell of aging
Am
Sicker than the rest, there is no test
But
F
this is what you're craving
Am
First born unic
F
orn
Am
Hardcore, soft
F
porn
C
Dream of Cali
G
fornic
Dm
ation
Am
C
Dream of Cali
G
fornic
Dm
ation
Am
C
Dream of Cali
G
fornic
Dm
ation
Am
C
Dream of Cali
G
fornic
Dm
ation
Am

Skladba pochází se stejnojmenného alba z roku 1999. V roce 2000 byla vydána jako singl a dosáhla 69. pozice v Billboard Hot 100 v USA, 16. pozice v UK Singles Chart a vyšplhala se až na 1. místo v US Mainstream Rock Tracks a US Modern Rock Tracks. Píseň pojednává o pozlátku Hollywoodu a temné straně přílivu lidí prahnoucí po svých snech do oblastí Kalifornie, známé pod pojmem "Californication".

Report mistake
Verified by smartchords
Added by Hlady

Report an error in lyrics or chords

chord